Oops, an error
Loading. Please wait.

Alt Lys Er Svunnet Hen Tab

version 2
version 2

Whole song

Interactive

1,387 views 3 this week
no commentswrite comment
1 2 3 4 5
please rate
add to favorites
launch autoscroll
font size
0
reset
how to read this tab
guitar tuner
Autoscroll
slow
fast
+/-
esc
set tempo
stop
Help us to improve Ultimate-Guitar.com Take our survey!
×
alt lys er svunnet hen
by Dimmu borgir

standard tuning- e a d g b e

.= palm mute
t= tremelo
~= sustained note
/= slide and strike
s= strike hard

listen to the song for timing and if something doesn't sound right, tell me in a comment

e------------------------------------------------------------|
b------------------------------------------------------------|
g------------------------------------------------------------|
d------------------------------------------------------------|
a-777777-333333-5/6-777777-3333333-5/6-----------------------|
e-555555-111111-3/4-555555-1111111-3/4-----------------------|
  t      t      s s t      t       s s

e------------------------------------------------------------|
b------------------------------------------------------------|
g------------------------------------------------------------|
d------------------------------------------------------------|
a-7-7777/9/7/555555555---2-2222/3/2-00000000-----------------|
e-5-5555/7/5/333333333---0-0000---0-00000000-----------------|
         . .                    . .
e------------------------------------------------------------|
b------------------------------------------------------------|
g------------------------------------------------------------|
d------------------------------------------------------------|
a-77777777777/33333333333333-777777777777/333333333333-------|
e-55555555555/11111111111111-555555555555/111111111111-------|
  t           t              t            t

e------------------------------------------------------------|
b------------------------------------------------------------|
g------------------------------------------------------------|
d------------------------------------------------------------|
a-7-777777-78-----------10-1010101010 either a-12-1212121212-|
e------------8-888888-8--------------     or e-10-1010101010-|
  . ...... . .. ......  .  . . . . .           .  . . . . .

verse= to be looked into

outro
~~~~~

e------------------------------------------------------------|
b------------------------------------------------------------|
g------------------------------------------------------------|
d------------------------------------------------------------|
a-5555555/4444444-4-4/6/5/4-5555555/44444444-4-4/6/5/4-------|
e-3333333/2222222-2-2/4/3/2-3333333/22222222-2-2/4/3/2-------|
  t       t       . . . . .                  . . . . .
                  s s s s s                  s s s s s
Suggest correction
What's this?
You can suggest a correction to this tab. Community and Mods will review your correction and vote to approve or reject it.
comments
We did not receive enough feedback on this tab! Please rate:
print report bad tab
1 2 3 4 5
guest
You may want to rate the tab now too:
select rating
Please do not post tabs as comments. Select "correction" instead!