Oops, an error
Loading. Please wait.

Antikrist Bass Tab

version 1
version 1

Whole song

Interactive

1,376 views 3 this week
1 commentread comment
1 2 3 4 5
please rate
add to favorites
launch autoscroll
font size
0
reset
guitar tuner
Autoscroll
slow
fast
+/-
esc
set tempo
stop
Help us to improve Ultimate-Guitar.com Take our survey!
×
Author
Difficulty
intermediate
                          Band: Dimmu Borgir
                          Song: Antikrist
                       Tabbed By: Chris Povey (metallica-best@hotmail.co.uk)


G|---------------|
D|---------------|
A|2--------------|x4
E|--0------------|


G|------------------------------------------7--------------------------|
D|--------2-4-5-4-2-------------------2-4-5---5--4-5-4--2-4-2--0-2-0---|
A|2-----2-----------5-3-2-------2---2----------------------------------|x2
E|--0-----------------------------0------------------------------------|

G|------------------------------------------------------------------|
D|------------------------------------------------------------------|x4
A|------------------------------------------------------------------|
E|5---7--8--12--10-----5---7--8--12--10-12-13-15--------------------|

G|-------------------------------------------------------------------|x2
D|-------------------------------------------------------------------|
A|-------------8-8-8-8-8-8--5-5-5-5-5-5--3-3-3--2-2-2----------------|
E|5-5-5-5-5-5--------------------------------------------------------|

G|---------------------------------------------------------------------|
D|---------------------------------------------------------------------|
A|7-7-7-7--------------------------------7-7-7-7-----------------------|x4
E|---------5-5-5-5--5-8-9-8/11\9-8-9-8------------5-5-5-5--5-8-9--11\9-|

G|---------|
D|---------|
A|---------|
E|8-9-8----|x2

G|-------------------------------------------------------------------|
D|-------------------------------------------------------------------|
A|-------------------------------------------------------------------|
E|7-7-7-7-7-7--8-8-8-8-8-8--15-15-15-15-15-15--12-13-8-8-8--8-10-12--|x2

G|-------------------------------------------------------------------|
D|-------------------------------------------------------------------|
A|-------------------------------------------------------------------|x4
E|5-5-5-5-5-5--7-7-7-8-8-8--12-12-12-12-12-12--10-10-10-10-10-10-----|


G|-----------------------------------------------------------------|
D|-----------------------------------------------------------------|
A|-----------------------------------------------------------------|
E|5-5-5-5-5-5--7-7-7-8-8-8--12-12-12-12-12-12--10-12-13-15---------|x2

G|-------------------------------------------------------------------|
D|-------------------------------------------------------------------|
A|-------------------------------------------------------------------|
E|7-7-7-7-7-7--8-----------------------------------------------------|x8

end
Suggest correction
Give kudos to tab author, rate the tab!
1 2 3 4 5
comments
print report bad tab
1 comment total.
0 reply
HolyReaper 10 wrote on July 4 2009, 05:18 pm

Is this the old version or the new version

guest
You may want to rate the tab now too:
select rating
Please do not post tabs as comments. Select "correction" instead!