Oops, an error
Loading. Please wait.

Antikrist Tab

version 1
version 1

Whole song

Interactive

1,145 views 1 this week
no commentswrite comment
1 2 3 4 5
2 more votes to show rating
add to favorites
launch autoscroll
font size
0
reset
how to read this tab
guitar tuner
Autoscroll
slow
fast
+/-
esc
set tempo
stop
Help us to improve Ultimate-Guitar.com Take our survey!
×
Author
Difficulty
novice
-------------------------------------------------------------------------------
                             Dodsferd - Dimmu Borgir
-------------------------------------------------------------------------------
Tabbed by:Derz
Email:Phillip55@web.de

PLEASE READ! Sorry guys this is dodsferd, i have the old version of strormblast
and there they muddled up Antikrist and dodsferd so i thought this would be antikrist 
i just recognized it now!

This is mostly just the Rhytm Guitar, i didn´t write the lead guitar part at the end, 
it´s confusing without notes! maybe i will do a guitar pro tab of this song!

If you have questions please send me an e-mail or send a message to my ultimate-guitar account...

Tuning: EADGBe

Album: Stormblast (1994)
Song : Dodsferd

Intro: x4 0:00
E|--------------------------------------------------------------------------|
B|--------------------------------------------------------------------------|
G|-9-9-9-9-9-9--5-5-5--7-7-7--4-4-4-4-4-4-4-4-4-4-4-4-----------------------|
D|-9-9-9-9-9-9--5-5-5--7-7-7--4-4-4-4-4-4-4-4-4-4-4-4-----------------------|
A|-7-7-7-7-7-7--3-3-3--5-5-5--2-2-2-2-2-2-2-2-2-2-2-2-----------------------|
E|--------------------------------------------------------------------------|

Verse : x4 0:33
e|-------------------------------------------------------------------------|
B|-------------------------------------------------------------------------|
G|-------------------------------------------------------------------------|
D|-999999999--121212121212121212-4444444444444444--------------------------|
A|-777777777--101010101010101010-2222222222222222--------------------------|
E|-------------------------------------------------------------------------|

Intro Riff: x4 0:57

Riff: about 8 times 1:31
e|--------------------------------------------------------------------------|
B|--------------------------------------------------------------------------|
G|-----------------------------------------------777--------1212121212121212|
D|---------10109910101010101010101010101010101010---101010109-9-9-9-9-9-9-9-|
A|-77777777-----------------------------------------------------------------|
E|--------------------------------------------------------------------------|

Bridge: x6 2:09
e|--------------------------------------------------------------------------|
B|--------------------------------------------------------------------------|
G|-----------------------------------------------7-7-6-6--------------------|
D|--------------------------777777777771010779999---------------------------|
A|-777777777777766666666666-------------------------------------------------|
E|--------------------------------------------------------------------------|

Verse:x4 3:00
Intro Riff: x4 3:24

Outro: Till the End! 3:57
e|--------------------------------------------------------------------------|
B|--------------------------------------------------------------------------|
G|--------------------------------------------------------------------------|
D|-222222222222222222225555444477777777-------------------------------------|
A|-000000000000000000003333222255555555-------------------------------------|
E|--------------------------------------------------------------------------|
Suggest correction
Give kudos to tab author, rate the tab!
1 2 3 4 5
comments
print report bad tab
guest
You may want to rate the tab now too:
select rating
Wanna post a correction for this tab? Suggest correction