Oops, an error
Loading. Please wait.

Arcane Lifeforce Mysteria Tab

version 1
version 1

Whole song

Interactive

1,622 views 1 this week
2 commentsread comments
1 2 3 4 5
excellent!
x 1
add to favorites
launch autoscroll
font size
0
reset
how to read this tab
guitar tuner
Tab Pro tools
  • play this tab
  • loop segment
  • change instrument
  • show fretboard
  • metronome
Autoscroll
slow
fast
+/-
esc
set tempo
stop
Contributor
                DIMMU BORGIR - ARCANE LIFEFORCE MYSTERIA

From the album: Spiritual Black Dimensions
Tabbed by: Arto Osterman (thornofsin@hotmail.com)

Tuning: Standard
Marking:
Palm mute: ....
Let ring: l         
Mute: m

Riff 1: (Clean guitar)
|-------------------------------------------------------|
|-------------------------------------------------------|
|------------------------------------9-----9----9-------|
|---6------6----6---8-----8-----8------8-----8----8--9--|
|----7------7---------7-----7-----7------7----7---------|
|-0-----0-----0---------0-----0-------------------------|
                                                     l

Guitar 2: (Distortion)
|---------------|
|---------------|
|---------------|
|---------------|
|-7--7---7--7---|
|-0--0---0--0---|
  .  l   .  m      


Riff 2:
|------------------------------------------------|
|------------------------------------------------|
|------------------------------------------------|
|------------------------------------------------|
|-7-77-7-77-7-7--7-77-7-77-7-7--7-77-7-77-7-7-7--|
|-0-00-0-00-0-0--0-00-0-00-0-0--0-00-0-00-0-0-0--|
    ..   ..   .    ..   ..   .    ..   ..   . l


Riff 3: (Guitar 1)
|--------------------------------------------------------|
|--------------------------------------------------------|
|--------------------------------------------------------|
|-----7777-6666-1010101010-------------------------------|
|--------------------------8888-7777---------------------|
|-555--------------------------------8888-5555-444-0000--|
                

Fill 1: (Guitar 2)
|-------------------|
|-------------------|
|-------------------|
|-------------------|
|-7---10--7---6--2--|
|-5---8---5---4--0--|
  m       m     
                     
Play this under Riff 3:
|---------------------------------------|
|---------------------------------------|
|---------------------------------------|
|---------------------------------------|
|-777777--101010101010-777777-66666-2---|
|-555555--8-8-8-8-8-8--555555-44444-0---|


Riff 4:
|-----------|--------------------|
|-----------|--------------------|
|-----------|--------------------|
|-----------|--------------------|
|-2---2-----|-2-2-2-222--2-222---|
|-0---0-----|-0-0-0-000--0-000---|
  l               . ...  . ...


Riff 5:
|-----------------|
|-----------------|
|-----------------|
|-----------------|
|-7---10--7--6-2--|
|-5---8---5--4-0--|
                
Play that riff 4 times and then riff 3


Riff 6:
|------------------------------------------------------|
|------------------------------------------------------|
|------------------------------------------------------|
|-666-777-333-666666666-666-777-333-999-7777777777777--|
|-444-555-111-444444444-444-555-111-777-5555555555555--|
|------------------------------------------------------|


Riff 7:
|--------------------|
|--------------------|
|--------------------|
|-9/8-------10/9-----|
|--------------------|
|-----00-0-------00--|
      ..         ..

Riff 8:
|-----------------------|
|-----------------------|
|-----------------------|
|-----------------------|
|-7-6---------------10--|
|-----6-7--2-3-3--3/8---|

When singing starts play that riff by tremolo picking...

                        >>> ANY CORRECTIONS ARE WELCOME <<<
comments
We did not receive enough feedback on this tab! Please rate:
print report bad tab
1 2 3 4 5
2 comments total.
0 reply
Derz wrote on November 3 2007, 04:35 pm

nice job!

0 reply
Tatemono wrote on May 30 2008, 06:36 pm

I agree... It's almost best Dimmu Borgir tab I have seen :)

I want to post or [tab]
guest
You may want to rate the tab now too:
select rating
Please do not post tabs as comments. Select "correction" instead!