Oops, an error
Loading. Please wait.

Architecture Of A Genocidal Nature Tab

version 1
version 1

Whole song

Interactive

1,431 views 3 this week
2 commentsread comments
1 2 3 4 5
please rate
add to favorites
launch autoscroll
font size
0
reset
how to read this tab
guitar tuner
Autoscroll
slow
fast
+/-
esc
set tempo
stop
Help us to improve Ultimate-Guitar.com Take our survey!
×
Author
TheMutts 13,644
Palm mute: .

Slide up:/

Slide down:\

Vibrato: ~

Tunning E A D G B E




This is how I play this song:




|----------|    Start the song with that chord (let ring)
|----------|
|----------|
|-5--------|
|-5--------|
|-3--------|


Riff 1

|-------------------------------------------------------------------|
|-------------------------------------------------------------------|
|-------------------------------------------------------------------|
|-------------------5-----------------8-----12-----9----------------|
|-2-----------------5-----2-----------6-----10-----7----------------|
|-0-000-0-000-0-000-3-----0-000-0-000-6-----10-----7-000-0-000-0-000|

    ... . ... . ...         ... . ...                ... . ... . ...


|-------------------------------------------------------------------|
|-------------------------------------------------------------------|
|-------------------------------------------------------------------|
|-5-----------------------------------------------------------------|
|-5------------------00022211222444444445555------------------------|
|-3-----3333666622222-----------------------------------------------|

        ....................................

 ( Amount? Something like that. Who really knows? It's so fast!)



Riff 1 alt

|-------------------------------------------------------------------|
|-------------------------------------------------------------------|
|-------------------------------------------------------------------|
|-------------------5-----------------8-----12-----9----------------|
|-2-----------------5-----2-----------6-----10-----7----------------|
|-0-000-0-000-0-000-3-----0-000-0-000-6-----10-----7-000-0-000-0-000|

    ... . ... . ...         ... . ...                ... . ... . ...


|-------------------------------------------------------------------|
|-------------------------------------------------------------------|
|-------------------------------------------------------------------|
|-5------------------------------5--4-------------------------------|
|-5------------------00022211222-5--4-------------------------------|
|-3-----3333666622222------------3--2-------------------------------|

        ........................



Riff 2

|-------------------------------------------------------------------|
|-------------------------------------------------------------------|
|-------------------------------------------------------------------|
|-------------------5-----------------8-----12-----9----------------|
|-2-----------------5-----2-----------6-----10-----7----------------|
|-0000000000000000003-----0000000000006-----10-----70000000000000000|

   .................       ...........              ................


|-------------------------------------------------------------------|
|-------------------------------------------------------------------|
|-------------------------------------------------------------------|
|-5-----------------------------------------------------------------|
|-5------------------00022211222444444445555------------------------|
|-3-----3333666622222-----------------------------------------------|

        ....................................



Riff 2 alt

|-------------------------------------------------------------------|
|-------------------------------------------------------------------|
|-------------------------------------------------------------------|
|-------------------5-----------------8-----12-----9----------------|
|-2-----------------5-----2-----------6-----10-----7----------------|
|-0000000000000000003-----0000000000006-----10-----70000000000000000|

   .................       ...........              ................


|-------------------------------------------------------------------|
|-------------------------------------------------------------------|
|-------------------------------------------------------------------|
|-5------------------------------5--4-------------------------------|
|-5------------------00022211222-5--4-------------------------------|
|-3-----3333666622222------------3--2-------------------------------|

        ........................


Fill 1
|----------| * let ring
|----------|
|----------|
|-7--------|
|-5--------|
|-5--------|



Riff 3


|---------------------------------------|
|---------------------------------------|
|---------------------------------------|
|-7--------------------------------7\---|
|-5--------------------------------5\---|
|-5--------------------------------5\---|


|---------------------------------------|
|---------------------------------------|
|---------------------------------------|
|---------------------------------------|
|-4------4----4------4------4----4------|
|-2-2222-2-22-2-2222-2-2222-2-22-2-2222-|

    ....   ..   ....   ....   ..   ....



Riff 3 alt


|---------------------------------------| *This is just to simplify the tab
|---------------------------------------|  Actually, I play it on the
|---------------------------------------|  10th frame on the 6 string
|---------------------------------------|  It keeps a better flow
|-55555555555555555555555555555555------|
|---------------------------------------|

  ................................ (softly)


|---------------------------------------|
|---------------------------------------|
|---------------------------------------|
|---------------------------------------|
|---------------------------------------|
|-22222222222222222222222222222222------|

  ................................ (softly)


riff 3 alt Second guitar

|---------------------------------------|
|---------------------------------------|
|------2------3------9------7----3----2-|
|-0000-0-0000-0-0000-0-0000-0-00-0-00-0-|
|---------------------------------------|
|---------------------------------------|

  ....   ....   ....   ....   ..   ..


|---------------------------------------|
|---------------------------------------|
|---------------------------------------|
|---------------------------------------|
|------4------3------2------0----2----4-|
|-2222-2-2222-2-2222-2-2222-2-22-2-22-2-|

  ....   ....   ....   ....   ..   ..


Fill 2
|----------|
|----------|
|----------|
|-7\-------|
|-5\-------|
|-5\-------|


Fill 3


|----------------------------|
|----------------------------|
|----------------------------|
|-4-44444-12---10--6---------|
|-2-22222-10---8---4---------|
|-2-22222-10---8---4---------|

    .....

Riff 4

|------------------------------------------------------|
|------------------------------------------------------|
|------------------------------------------------------|
|-7----7-7-7--7/8-8-8--8-8-8\4-4--4--4-4---5-5-5---5-5-|
|-5----5-5-5--5/6-6-6--6-6-6\2-2--2--2-2---3-3-3---3-3-|
|-5----5-5-5--5/6-6-6--6-6-6\2-2--2--2-2---3-3-3---3-3-|


|------------------------------------------------------|
|------------------------------------------------------|
|------------------------------------------------------|
|-7----7-7-7--7/8-8-8--8-8--4-44444-12---10--6---------|
|-5----5-5-5--5/6-6-6--6-6--2-22222-10---8---4---------|
|-5----5-5-5--5/6-6-6--6-6--2-22222-10---8---4---------|

                              .....

Fill 4
|----------|
|----------|
|----------|
|----------|
|----------|
|-5\-------|

  ~


Fill 5
|----------|
|----------|
|----------|
|-5--------|
|-5--------|
|-3--------|


Riff 4 alt
|------------------------------------------------------|
|------------------------------------------------------|
|------------------------------------------------------|
|-7----7-7-7-7/8----8-8-8-8\4----4-4-4-4/5----5--------|
|-5----5-5-5-5/6----6-6-6-6\2----2-2-2-2/3----3--------|
|-5----5-5-5-5/6----6-6-6-6\2----2-2-2-2/3----3--------|


|------------------------------------*-----------------| * Insert fill 6
|------------------------------------*-----------------|
|------------------------------------*-----------------|
|-7----7-7-7-7/8----8-8-8-8\4-44444--12---10--6--------|
|-5----5-5-5-5/6----6-6-6-6\2-22222--10---8---4--------|
|-5----5-5-5-5/6----6-6-6-6\2-22222--10---8---4--------|

                              .....


Fill 6
|-------------------------------------|
|-------------------------------------|
|-------------------------------------|
|--------------------------5----------|
|--------------00022211222-5----------|
|-3333666622222------------3----------|

  ........................



Order:

Riff 1 x 2
Riff 1 alt
Riff 2
Riff 2 alt
Riff 2
Riff 2 alt
Fill 1
Riff 3 x 2
Riff 3 alt x 2
Riff 3 alt x 2 + Second guitar x 2
Fill 2
Fill 3
Riff 4 x 2
Fill 4
Fill 5
Riff 2
Riff 2 alt
Riff 2
Riff 2 alt
Riff 3 x 2
Riff 3 alt x 4 + Second guitar x4
Riff 4 alt x 2
Fill 6 * goes at the end of Riff 4 alt where I put this mark:*
Riff 1
Riff 1 alt
Riff 2
Riff 2 alt
Riff 2
Riff 2 alt * Finish last two notes with a heavy palm mute
Suggest correction
What's this?
You can suggest a correction to this tab. Community and Mods will review your correction and vote to approve or reject it.
comments
We did not receive enough feedback on this tab! Please rate:
print report bad tab
1 2 3 4 5
2 comments total.
0 reply
Silenzo666 198 wrote on March 31 2005, 12:00 am

good tab, but i'm pretty sure the song it played in drop-c (CGCFAD), here's what the intro would be like if u tabbed it in drop-c

(repeat untill end of intro)
D|----------------------------------------------------------------|
A|----------------------------------------------------------------|
F|----------------------------------------------------------------|
C|----------------------------------------------------------------|
G|-3-3*3*-33-3*-3\2-6-3-3*3*-33-2/6-------------------------------|
C|-3-3*3*-33-3*-3\2-6-3-3*3*-33-2/6-------------------------------|

+1 reply
savagebeast666 44 wrote on January 25 2008, 05:41 pm

dimmu never plays in drop tunings, this tab is correct

guest
You may want to rate the tab now too:
select rating
Please do not post tabs as comments. Select "correction" instead!