Oops, an error
Loading. Please wait.

Blood Hunger Doctrine Bass Tab

version 1
version 1

Whole song

Interactive

373 views 1 this week
no commentswrite comment
1 2 3 4 5
please rate
add to favorites
launch autoscroll
font size
0
reset
guitar tuner
Autoscroll
slow
fast
+/-
esc
set tempo
stop
Help us to improve Ultimate-Guitar.com Take our survey!
×
Author
Difficulty
Tuning
intermediate
D A D G B E
    ____________________________________________
--==    Dimmu Borgir - Blood hunger doctrine    ==--
    ''''''''''''''''''''''''''''''''''''''''''''
Tune: Dropped Down D

      
G|----------------|
D|----------------| 
A|----------------|
D|--0---0---0-3332|

G|----------------|
D|----------------| 
A|----------------|
D|0-0-5-3-0-0-5-35|

G|-------------------------------------------------------------------------|
D|-------------------------------------------------------------------------| 
A|-------------------------------------------------------------------------|
D|0---------000-------------000---0-------0---5---5---3---2---0------------|

Bridge:
G|----------------------------------|
D|----------------------------------|
A|----------------------------------|
D|-0-0-0-000-0-0-005-5-5-5-3-3-5-5--|

Verse:
G|--------------------------------|
D|--------------------------------| 
A|--------------------------------|
D|-0---00--------------00---------|

G|----------------------------------|
D|-----------------------------3-1--| 
A|-------------------------1111-1-1-|
D|-000000005555552500000000---------|

G|---------------------------------|
D|---------------------------------| 
A|---------------------------------|
D|-0---00------0000000---00--------|

Chorus:
G|----------------------------------------------------------------|
D|----------------------------------------------------------------| 
A|----------------------------------------------------------------|
D|-0-0-0-0-0-0-0-0-5-5-5-5-5-4-3-2-0-0-0-0-0-0-0-0-5-5-5-5-3-3-5-5|

I haven't creat a odrer list,
you must do it.
Suggest correction
Give kudos to tab author, rate the tab!
1 2 3 4 5
comments
print report bad tab
guest
You may want to rate the tab now too:
select rating
Please do not post tabs as comments. Select "correction" instead!