Oops, an error
Loading. Please wait.

Blood Hunger Doctrine Tab

version 2
version 2

Whole song

Interactive

496 views 1 this week
no commentswrite comment
1 2 3 4 5
3 more votes to show rating
add to favorites
launch autoscroll
font size
0
reset
how to read this tab
guitar tuner
Autoscroll
slow
fast
+/-
esc
set tempo
stop
Help us to improve Ultimate-Guitar.com Take our survey!
×
Author
Okay I didn't figure this all out on my own but it should still help those who love the 
but cant figure it out and the credit should also go to Brian Davis (Chenowith).

Lead Intro
Let this section ring out with a light distortion, and if you got a second channel set it on clean
e--------------|-----------------|
B-3---3---3----|-3---3-----------|
G--2---2---2---|---5---5---------|
D--------------|-----------------|
A--------------|-----------------|
E--------------|-----------------|

Second Section
  |1.          |2.
e---1----1h3----1---1p0---------|
B-------------------------------|
G-----2------------2------------|
D-------------------------------|
A-------------------------------|
E-------------------------------|

Main Chord Progression
Just Heavy Distortion
e-----------------|-------------|
B-3---------------|-3-----------|
G-2---------------|-2-----------|
D-0--5--3-2-1-0---|--0--5--3-5--|
A-0--5--3-2-1-0---|--0--5--3-5--|
E-----------------|-------------|

Riff A
e-----------------------------------|
B ------------------------------4---|
G------------------------4----3---3-|
D-0-0-0--0-0-0-0-0------------------|
A-0-0-0--0-0-0-0-0------------------|
E-0-0-0--0-0-0-0-0--4-4----4--------|

Riff B
e-------------------------------------------|
B ------------------------------------------|
G-------------------------------------------|
D-0-0-0--0-0-0-0-0-------------3---2--------|
A-0-0-0--0-0-0-0-0—1-1-1-1---1---1----------|
E-0-0-0--0-0-0-0-0--------------------------|

So thats pretty much it, the rest is just chugs.  Good luck.
Suggest correction
Give kudos to tab author, rate the tab!
1 2 3 4 5
comments
print report bad tab
guest
You may want to rate the tab now too:
select rating
Wanna post a correction for this tab? Suggest correction