Oops, an error
Loading. Please wait.

Broderskapets Ring Tab

version 2
version 2

Whole song

Interactive

2,328 views 3 this week
no commentswrite comment
1 2 3 4 5
please rate
add to favorites
launch autoscroll
font size
0
reset
how to read this tab
guitar tuner
Autoscroll
slow
fast
+/-
esc
set tempo
stop
Help us to improve Ultimate-Guitar.com Take our survey!
×
Difficulty
novice
This is the first tab i have done. And this in in normal tunning.
It sound pretty much like the original song. this version is from Stormblast 2005.


Riff 1
|-------------------------------------|
|-------------------------------------|
|--777777-----------------------------|
|--777777-555555-888888-101010101010--|
|--555555-555555-888888-101010101010--|
|---------333333-666666-8-8-8-8-8-8---|


Riff 2
|-------------------------------------|
|-------------------------------------|
|-------------------------------------|
|--5------8---7-8-10-1212121212121212-|
|--5------8---7-8-10-1212121212121212-|
|--3------6---5-6-8--1010101010101010-|


Riff 3
|--------------|--------------------------------|
|--------------|--------------------------------|
|--------------|--------------------------------|
|--------5-----|--------5-----7-8-7/5-7-------3-|
|--3-5-6---6-5-|--3-5-6---6-5-----------3-5-6---|
|--------------|--------------------------------|

That about it. I Tabbed it as best i could.If anyone has the Tab for the lick at the 
could you send it to me on Marawanahamsta@hotmail.com


Sron Pop 666 (keep it evil)
Suggest correction
Give kudos to tab author, rate the tab!
1 2 3 4 5
comments
print report bad tab
guest
You may want to rate the tab now too:
select rating
Wanna post a correction for this tab? Suggest correction