Oops, an error
Loading. Please wait.

Broderskapets Ring Tab

version 3
version 3

Whole song

Interactive

743 views 1 this week
2 commentsread comments
1 2 3 4 5
2 more votes to show rating
add to favorites
launch autoscroll
font size
0
reset
how to read this tab
guitar tuner
Autoscroll
slow
fast
+/-
esc
set tempo
stop
Help us to improve Ultimate-Guitar.com Take our survey!
×
Artist:Dimmu Borgir

Song:Broderskapets Ring


tune down one step DGCFAD

i think the intro is right

intro
|------------------------------0-----------------------------|
|--------------------------------0---------------------------|
|------0------0--------0-------------------------------------|
|----2------2--------2-------2-------------------------------|
|--0------0--------0-------0---------------------------------|
|0------0--------0-------0-----------------------------------|

Riff A
|-----------------------------------------------------------------|
|-----------------------------------------------------------------|
|-----------------------------------------------------------------|
|-9-9-9-9-9-9-----------------------------------------------------|
|-7-7-7-7-7-7--7-7-7-7-7-7--10-10-10-10-10-10--12-12-12-12-12-12--|
|--------------5-5-5-5-5-5--8--8--8--8--8--8---10-10-10-10-10-10--|


Riff B
|-----------------------------------------------------------------------|
|-----------------------------------------------------------------------|
|-----------------------------------------------------------------------|
|-----------------------------------------------------------------------|
|-7-7-7-7-7-7--10-10-10--9--10-12--14-14-14-14-14-14-14-14-14-14-14-14--|
|-5-5-5-5-5-5--8--8--8---7--8--10--12-12-12-12-12-12-12-12-12-12-12-12--|


Riff C
|-----------------------------------------------------------|
|-----------------------------------------------------------|
|-----------------------------------------------------------|
|-7-7-7-7-7-7--10-10-10-10-10-10----------------------------|
|-5-5-5-5-5-5--8--8--8--8--8--8--7-7-7-7-7-7--3-3-3--5-5-5--|
|--------------------------------5-5-5-5-5-5--1-1-1--3-3-3--|

not 2 sure about this bit
Guitar 2
|------------------------------------------------------|
|------------------------------------------------------|
|------------------------------------------------------|
|-------7------------7---------------------------------|
|-5-7-8---8-7--5-7-8---8-7--7-7-7-7-7-7--3-3-3--5-5-5--|
|---------------------------5-5-5-5-5-5--1-1-1--3-3-3--|


This would have to be one of Dimmu Borgirs best songs
Suggest correction
Give kudos to tab author, rate the tab!
1 2 3 4 5
comments
print report bad tab
2 comments total.
0 reply
6Black6Metal6 10 Dec 30, 2006 01:19 PM

the intro is from a completely different song from the re-recorded version of stormblast called "Sorgens Kammer Del-II"

but other than that the tab seems right to me.

0 reply
cerberos 72 Aug 26, 2007 04:25 PM

the intro is from sorgens kammer 2 Shole

guest
You may want to rate the tab now too:
select rating
Wanna post a correction for this tab? Suggest correction