Oops, an error
Loading. Please wait.

Broderskapets Ring Tab

version 4
version 4

Whole song

Interactive

389 views 3 this week
no commentswrite comment
1 2 3 4 5
please rate
add to favorites
launch autoscroll
font size
0
reset
how to read this tab
guitar tuner
Autoscroll
slow
fast
+/-
esc
set tempo
stop
Help us to improve Ultimate-Guitar.com Take our survey!
×
Author
Difficulty
novice
-----------------------------------------------------------------------------
                        BRODERSKAPETS RING - Dimmu Borgir
-----------------------------------------------------------------------------
Tabbed by: Mint
e-mail: mato.reberc@gmail.com

Tuning: standard E (E, A, D, G, B, e)

This song is tabbed for solo playing like on this video:
http://www.youtube.com/watch?v=0GyZINa5v-E

h = hammer on
p = pull off

RIFF 1 (2x)
e|---------------------------------------------------|
B|---------------------------------------------------|
G|---------------------------------------------------|
D|---------------------------------------------------|
A|-9-9-9-9-9-9-4-4-4-4-4-4-5-5-5-5-5-5-7-7-7-7-7-7---|
E|-7-7-7-7-7-7-2-2-2-2-2-2-3-3-3-3-3-3-5-5-5-5-5-5---|


RIFF 2 (4x)
e|----------------------------------------------|
B|----------------------------------------------|
G|----------------------------------------------|
D|-7---7-8-7-0----------------------------------|
A|-----------------3-2-3--0-0-2-3-5-----7-5-4---|
E|----------------------------------------------|


RIFF 3 (2x)
e|---------------------------------------------------------------------------|
B|---------------------------------------------------------------------------|
G|---------------------------------------------------------------------------|
D|-----------------------------------7p5h7-----------------------------------|
A|-4---5---4-5-7-9---7p5h7---5p3h5--5----------4---5---4-5-7-9---------------|
E|-2---3---2-3-5-7--5-------3------------------2---3---2-3-5-7---------------|

e|--------------------------|
B|--------------------------|
G|--------------------------|
D|--------------------------|
A|--7p5h7---5p3h5---5-4-2---|
E|-5-------3-------3--------|


RIFF 1 (2x)


RIFF 4 (2x)
e|---------------------------------------------------|
B|---------------------------------------------------|
G|-----------------3-5-7--5--4h5-4h5-7-------9-7-5---|
D|-7---7-8-7-0---------------------------------------|
A|---------------------------------------------------|
E|---------------------------------------------------|


RIFF 5 (4x)
e|--------------------------------------------------|
B|--------------------------------------------------|
G|--------------------------------------------------|
D|-------2-----------2-------4h5p4h5-2h4--0---------|
A|-0-2-3---3-2-0-2-3---3-2------------------2-4-5---|
E|--------------------------------------------------|


RIFF 3 (2x)


RIFF 6 (8x)
e|-----------------------------------------------------|
B|-----------------------------------------------------|
G|-----------------------------------------------------|
D|-------------5-5-5-5-5-5-5-4-4-4-4-4-4---------------|
A|-7-7-7-7-7-7-3-3-3-3-3-3-3-2-2-2-2-2-2-3-3-3-5-5-5---|
E|-5-5-5-5-5-5---------------------------1-1-1-3-3-3---|


RIFF 5 (until fade out)
Suggest correction
Give kudos to tab author, rate the tab!
1 2 3 4 5
comments
print report bad tab
guest
You may want to rate the tab now too:
select rating
Wanna post a correction for this tab? Suggest correction