Oops, an error
Loading. Please wait.

Burn In Hell Bass Tab

version 2
version 2

Whole song

Interactive

525 views 1 this week
1 commentread comment
1 2 3 4 5
please rate
add to favorites
launch autoscroll
font size
0
reset
guitar tuner
Tab Pro tools
  • play this tab
  • loop segment
  • change instrument
  • show fretboard
  • metronome
×
Best way to learn
"Burn In Hell"
Autoscroll
slow
fast
+/-
esc
set tempo
stop
Contributor
Tabbed by Robin Graves

Some of the other tabs for this song are decent, but no one has the correct pre-chorus. 
believe my version is much more accurate than the others.It sounds pretty good if you 
it with the song.

Intro (part a)

G---------------------------|
D---------------------------|
A---------------------------|
E-0-00-10-8-8-10—3-2--|

Intro (part b)

G-----------------------|
D-----------------------|
A-----------------------|
E-0-00-0-00-3-2—--|

Intro (part C)

G----------------|
D----------------|
A----------------|
E-0-00-0-2-3-3-3-|

Intro (part d)

G-------|
D-------|
A-------|
E-3-2-1-|

Intro (part e)

G-----------------------------------------------|
D-----------------------------------------------|
A-----------------------------------------------|
E-7-0-0-0-0-0-8-0-0-0-0-0-7-0-0-0-0-0-8-0-0-0-0-|

Verse:

G-----------------------------------------------|
D-----------------------------------------------|
A-----------------------------------------------|
E-7-0-0-0-0-0-3-2-0-2-3-2-7-0-0-0-0-0-8-0-0-0-0-|


G-------------------------------------|
D-------------------------------------|
A-------------------------------------|
E-7-0-0-0-0-0-8-0-0-0-0-0-7-5-3-7-5-3-|

Pre-Chorus:

G------------------------------------------------------|
D------------------------------------------------------|
A------------------------------9-7-7-7-7-----9-7-7-7-7-|
E-55-555-555-555-7-5-3-7-5-7h9-----------7h9-----------|


G----------------------------|
D----------------------------|
A----------------------------|
E-55-555-555-555-7-5-3-7-5-3-|


G-----------------------------------|
D-10-9-7-9--------7-----------------|
A----------10-9-7---10-9-7-9--------|
E----------------------------10-9-7-|

G---------------------|
D-10-9-7-9------------|
A----------10-9-7-9---|
E-------------------7-|

Chorus:

G-------------------------------|
D-------------------------------|
A-------------------------------|
E-7-0-0-0-0-0-8-0-0-0-0-0-2~-7~-|

Guitar solo:

G-----------------------------------------------|
D-----------------------------------------------|
A-----------------------------------------------|
E-7-0-0-0-0-0-3-2-0-2-3-2-7-0-0-0-0-0-8-0-0-0-0-|

G-------------------------------------|
D-------------------------------------|
A-------------------------------------|
E-7-0-0-0-0-0-8-0-0-0-0-0-7-5-3-7-5-3-|

G------------------------------------------------------|
D------------------------------------------------------|
A------------------------------9-7-7-7-7-----9-7-7-7-7-|
E-55-555-555-555-7-5-3-7-5-7h9-----------7h9-----------|

G----------------------------|
D----------------------------|
A----------------------------|
E-55-555-555-555-7-5-3-7-5-3-|

G-----------------------------------|
D-10-9-7-9--------7-----------------|
A----------10-9-7---10-9-7-9--------|
E----------------------------10-9-7-|

G---------------------|
D-10-9-7-9------------|
A----------10-9-7-9---|
E-------------------7-|

Final Chorus:

G-------------------------------------------------------|
D-------------------------------------------------------|
A-------------------------------------------------------|
E-7-0-0-0-0-0-8-0-0-0-0-0-7-0-0-0-0-0-2222-222-7777-777-|
comments
We did not receive enough feedback on this tab! Please rate:
print report bad tab
1 2 3 4 5
1 comment total.
0 reply
Robin Graves wrote on January 30 2007, 11:18 am

the last peice of the intro should be played the this:

G----------------|
D----------------|
A----------------|
E-0-00-0-2-3-2-1-|


I want to post or [tab]
guest
You may want to rate the tab now too:
select rating
Please do not post tabs as comments. Select "correction" instead!