Oops, an error
Loading. Please wait.

Burn In Hell Tab

version 2
version 2

Whole song

Interactive

3,497 views 15 this week
no commentswrite comment
1 2 3 4 5
worth learning
x 5
add to favorites
launch autoscroll
font size
0
reset
how to read this tab
guitar tuner
Autoscroll
slow
fast
+/-
esc
set tempo
stop
Help us to improve Ultimate-Guitar.com Take our survey!
×
Author
                                  BURN IN HELL
                           As recorded by Dimmu Borgir
             (From the 2001 Album PURITANICAL EUPHORIC MISANTHROPIA)

Words by Twisted Sister

Music by Dimmu Borgir
Arranged by Dimmu Borgir

Gtr I, II, III (E A D G B E)

 Intro
  Q=90
  E5        D5   C5     D5 G5F#5 E5        D5/A C5/G   D5/G5 F#5
 4/4
  Gtr I
  Q.   E Q  Q    Q.   E Q  E E   Q.   E Q  Q    Q.   E Q   E  E
|--------------|---------------|--------------|-----------------|
|--------------|---------------|--------------|-----------------|
|-----------7--|-5----5-7------|--------------|-----------------|
|-2----2-2--7--|-5----5-7--5-4-|-2----2-2-----|------------5--4-|
|-2----2-2--5--|-3----3-5--5-4-|-2----2-2--5--|-3----3-5---5--4-|
|-0----0-0-----|-----------3-2-|-0----0-0--5--|-3----3-5---3--2-|
|
| Gtr II
| W              W               W              H      Q   E  E
|--------------|---------------|--------------|-----------------|
|--------------|---------------|--------------|--------------12-|
|--------------|---------------|--------------|-----------12----|
|--------------|---------------|--------------|-----------------|
|--------------|---------------|--------------|-----------------|
|--------------|---------------|--------------|-----------------|


  E5               D5         C5             D5 G5F#5
   Q.   E  Q        Q          Q.          E Q  E  E
|---------------------------|---------------------------|
|---------------------------|---------------------------|
|-------------------7-------|--5-----------5-7----------|
|--2----2--2--------7-------|--5-----------5-7--5--4----|
|--2----2--2--------5-------|--3-----------3-5--5--4----|
|--0----0--0----------------|-------------------3--2----|
|
|  ~~~                                     ~~
|          |--3--|  |--3--|
|  H       E  E  E  E  E  E    Q       E   H       E
|---------------------------|---------------------------|
|------------------10----10-|-10b12===10r-10------17-15-|
|-12------12-11-12----12----|---------------------------|
|---------------------------|---------------------------|
|---------------------------|---------------------------|
|---------------------------|---------------------------|
                               H             Q  E  S  S


  E5                        D5/A         C5/G            D5/G5 F#5
   Q.          E  Q          Q            Q.          E  Q   E  E
|--------------------------------------|---------------------------|
|--------------------------------------|---------------------------|
|--------------------------------------|---------------------------|
|--2-----------2--2--------------------|---------------------5--4--|
|--2-----------2--2----------5---------|--3-----------3--5---5--4--|
|--0-----------0--0----------5---------|--3-----------3--5---3--2--|
|
|                                                     ~~~
|                 |---3---|  |---3---|
|  E   S  S  Q    E  E    E  E  E    E    Q       E   Q.     E  E
|-----15-14-15---15-14---15-17-15---17-|-17b19===17r-17-----15-14--|
|-17-----------------------------------|---------------------------|
|--------------------------------------|---------------------------|
|--------------------------------------|---------------------------|
|--------------------------------------|---------------------------|
|--------------------------------------|---------------------------|
   E   H               Q          E


  E5                          G5F#5 E5                       G5F#5
   Q.   E Q  Q      Q.   E Q  E E   Q.   E Q  Q    Q.   E Q  E E
|---------------|-----------------|--------------|---------------||
|---------------|-----------------|--------------|---------------||
|---------------|-----------------|--------------|---------------||
|--2----2-2-----|---2----2-2--5-4-|-2----2-2-----|-2----2-2--5-4-||
|--2----2-2-----|---2----2-2--5-4-|-2----2-2-----|-2----2-2--5-4-||
|--0----0-0-----|---0----0-0--3-2-|-0----0-0-----|-0----0-0--3-2-||
|
|  >
|  W               +W               W              W
|-12------------|-(12)------------|--------------|---------------||
|---------------|-----------------|--------------|---------------||
|---------------|-----------------|--------------|---------------||
|---------------|-----------------|--------------|---------------||
|---------------|-----------------|--------------|---------------||
|---------------|-----------------|--------------|---------------||


 Verse 1
  E5                       G5F#5 E5                         F#5
  Q.   E Q  Q    Q.   E Q  E E   Q.   E Q  Q    Q.   E Q  E E
|--------------|---------------|--------------|---------------|
|--------------|---------------|--------------|---------------|
|--------------|---------------|--------------|---------------|
|-2----2-2-----|-2----2-2--5-4-|-2----2-2-----|-2----2-2--2-4-|
|-2----2-2-----|-2----2-2--5-4-|-2----2-2-----|-2----2-2--2-4-|
|-0----0-0-----|-0----0-0--3-2-|-0----0-0-----|-0----0-0--0-2-|


  G5             E5          F#5 G5             E5          F#5
  Q.   E Q  Q    Q.   E Q  E E   Q.   E Q  Q    Q.   E Q  E E
|--------------|---------------|--------------|---------------|
|--------------|---------------|--------------|---------------|
|--------------|---------------|--------------|---------------|
|-5----5-5-----|-2----2-2--2-4-|-5----5-5-----|-2----2-2--2-4-|
|-5----5-5-----|-2----2-2--2-4-|-5----5-5-----|-2----2-2--2-4-|
|-3----3-3-----|-0----0-0--0-2-|-3----3-3-----|-0----0-0--0-2-|


                                 H.=H
  G5             E5          F#5 G5   F#5    F5
  Q.   E Q  Q    Q.   E Q  E E   H    H      W
|--------------|---------------|-----------|------||
|--------------|---------------|-----------|------||
|--------------|---------------|-----------|------||
|-5----5-5-----|-2----2-2--2-4-|-5----4----|-3----||
|-5----5-5-----|-2----2-2--2-4-|-5----4----|-3----||
|-3----3-3-----|-0----0-0--0-2-|-3----2----|-1----||


 Pre-Verse
     B5E5             C5E5          B5 E5            C5
     Gtr III
  E. E. Q  E E E   E. E. Q  E E E   E. E. Q  E E E   E. E. Q  E E E
|----------------|----------------|----------------|----------------|
|----------------|----------------|----------------|----------------|
|-4--------------|-5--------------|-4--------------|-5--------------|
|-4--2--2--2-2-2-|-5--2--2--2-2-2-|-4--2--2--2-2-2-|-5--2--2--2-2-2-|
|-2--2--2--2-2-2-|-3--2--2--2-2-2-|-2--2--2--2-2-2-|-3--2--2--2-2-2-|
|----0--0--0-0-0-|----0--0--0-0-0-|----0--0--0-0-0-|----0--0--0-0-0-|


   Verse 2 & 3
    Q=120
    E5      G5   F#5E5F#5G5 F#5 B5 E5            C5
    H.      Q    Q  E Q  Q  E   E. E. Q  E E E   E. E. Q  E E E
||-------------|--------------|----------------|-----------------|
||o------------|--------------|----------------|-----------------|
||-------------|--------------|-4--------------|-5---------------|
||--2-------5--|-4--2-4--5--4-|-4--2--2--2-2-2-|-5--2--2--2-2-2--|
||o-2-------5--|-4--2-4--5--4-|-2--2--2--2-2-2-|-3--2--2--2-2-2--|
||--0-------3--|-2--0-2--3--2-|----0--0--0-0-0-|----0--0--0-0-0--|


  E5      B5   A5 G5B5 A5 G5  B5 E5            C5 E5
  H.      Q    Q  E Q  Q  E   E. E. Q  E E E   E. E. Q  E E E
|------------|--------------|----------------|----------------|
|------------|--------------|----------------|----------------|
|------------|--------------|-4--------------|-5--------------|
|-2-------9--|-7--5-9--7--5-|-4--2--2--2-2-2-|-5--2--2--2-2-2-|
|-2-------9--|-7--5-9--7--5-|-2--2--2--2-2-2-|-3--2--2--2-2-2-|
|-0-------7--|-5--3-7--5--3-|----0--0--0-0-0-|----0--0--0-0-0-|


  G5                   E5                      E5
  W          +Q.   S S S S S S S S S S   E S S S S S S S S S S Q
|----------|---------------------------|--------------------------|
|----------|---------------------------|--------------------------|
|----------|---------------------------|--------------------------|
|-5--------|-(5)---------2-------------|---------2----------------|
|-5--------|-(5)---x-x-2---------------|---x-x-2------------------|
|-3--------|-(3)-----------0-0-0-0-0-0-|-----------0-0-0-0-0-0----|


  G5
 4/4
  W          +Q.   S S S S S S S S S S   S S S S E S S S S S S E E
|----------|---------------------------|----------------------------|
|----------|---------------------------|----------------------------|
|----------|-------5-4-2-4-2-----2-----|-----------5-4-2------------|
|-5--------|-(5)-------------5-4---5-4-|-2-5-4-----------5-4-2------|
|-5--------|-(5)-----------------------|-------4-2-------------2----|
|-3--------|-(3)-----------------------|----------------------------|


  1.
  B5 E5            C5 E5            B5 E5            F#5  B5
 4/4
  E. E. Q  E E E   E. E. Q  E E E   E. E. Q  E E E   H    H
|----------------|----------------|----------------|------------||
|----------------|----------------|----------------|-----------o||
|-4--------------|-5--------------|-4--------------|------4-----||
|-4--2--2--2-2-2-|-5--2--2--2-2-2-|-4--2--2--2-2-2-|-4----4-----||
|-2--2--2--2-2-2-|-3--2--2--2-2-2-|-2--2--2--2-2-2-|-4----2----o||
|----0--0--0-0-0-|----0--0--0-0-0-|----0--0--0-0-0-|-2----------||


 Chorus
  2.
  B5 E5            C5 E5            B5 E5            F#5  B5/F#
  E. E. Q  E E E   E. E. Q  E E E   E. E. Q  E E E   H    H
|----------------|----------------|----------------|-----------|
|----------------|----------------|----------------|-----------|
|-4--------------|-5--------------|-4--------------|-----------|
|-4--2--2--2-2-2-|-5--2--2--2-2-2-|-4--2--2--2-2-2-|-4---------|
|-2--2--2--2-2-2-|-3--2--2--2-2-2-|-2--2--2--2-2-2-|-4----2----|
|----0--0--0-0-0-|----0--0--0-0-0-|----0--0--0-0-0-|-2----2----|


  B5 E5            C5 E5            B5 E5            F#5  B5
  E. E. Q  E E E   E. E. Q  E E E   E. E. Q  E E E   H    H
|----------------|----------------|----------------|-----------||
|----------------|----------------|----------------|-----------||
|-4--------------|-5--------------|-4--------------|------4----||
|-4--2--2--2-2-2-|-5--2--2--2-2-2-|-4--2--2--2-2-2-|-4----4----||
|-2--2--2--2-2-2-|-3--2--2--2-2-2-|-2--2--2--2-2-2-|-4----2----||
|----0--0--0-0-0-|----0--0--0-0-0-|----0--0--0-0-0-|-2---------||


 Guitar Solo
  E5                 G5     F#5     E5F#5    G5  F#5
  Gtr I
   H.                Q       Q      E Q      Q    E
|-------------------------|-------------------------|
|-------------------------|-------------------------|
|-------------------------|-------------------------|
|--2-----------------5----|--4------2-4------5----4-|
|--2-----------------5----|--4------2-4------5----4-|
|--0-----------------3----|--2------0-2------3----2-|
|
| Gtr II
|  E.  E.  E  E.  E.    E    E.  E.   E.  E.   E  E
|-------------------------|-------------------------|
|-12--10-----10-----------|-------------------------|
|---------12-----12----11-|-12--11----9--11----9----|
|-------------------------|----------------------12-|
|-------------------------|-------------------------|
|-------------------------|-------------------------|


  B5       E5                                    C5       E5
   E.       E.       Q           E     E     E    E.       E.       Q           E     E     E
|----------------------------------------------|------------------------------------------------|
|----------------------------------------------|------------------------------------------------|
|--4-------------------------------------------|--5---------------------------------------------|
|--4--------2--------2-----------2-----2-----2-|--5--------2--------2-----------2-----2-----2---|
|--2--------2--------2-----------2-----2-----2-|--3--------2--------2-----------2-----2-----2---|
|-----------0--------0-----------0-----0-----0-|-----------0--------0-----------0-----0-----0---|
|
|  S  S  S  S  S  S  S  S  S  S  S  S  S  S  E    S  S  S  S  S  S  S  S  S  S  S  S  S  S  E
|-15p14p12h15p14p12h15p14p12h15p14p12h15p14p12h|=15p14p12h15p14p12h15p14p12h15p14p12h15p14p12---|
|----------------------------------------------|------------------------------------------------|
|----------------------------------------------|------------------------------------------------|
|----------------------------------------------|------------------------------------------------|
|----------------------------------------------|------------------------------------------------|
|----------------------------------------------|------------------------------------------------|


  E5                  B5       A5     G5 A5      B5      A5
    H.                 Q        Q      E Q       Q       E
|----------------------------|-----------------------------|
|----------------------------|-----------------------------|
|----------------------------|-----------------------------|
|---2------------------9-----|--7------5-7-------9-------7-|
|---2------------------9-----|--7------5-7-------9-------7-|
|---0------------------7-----|--5------3-5-------7-------5-|
|
|   E   E  E  E  E  E  Q        Q      Q    Q       Q
|-/17--15----17-15-----------|-----------------------------|
|---------17-------17-17b19--|-17b19--17---17b19---17b19---|
|----------------------------|-----------------------------|
|----------------------------|-----------------------------|
|----------------------------|-----------------------------|
|----------------------------|-----------------------------|


  B5    E5                      C5    E5
   E.   E.     Q      E  E  E    E.   E.     Q       E E     E
|-----------------------------|------------------------------------|
|-----------------------------|------------------------------------|
|--4--------------------------|--5---------------------------------|
|--4----2------2------2--2--2-|--5----2------2-------2-2-----2-----|
|--2----2------2------2--2--2-|--3----2------2-------2-2-----2-----|
|-------0------0------0--0--0-|-------0------0-------0-0-----0-----|
|
|  Q        E.    E.  E  E  E    Q        E.    E E.   S  S.   S.
|-----------------------------|------------------------------------|
|-10b12r======================|=10b12r=============================|
|----------12----12--12-12-12-|----------12----11-9----9-------9---|
|-----------------------------|--------------------------12--------|
|-----------------------------|------------------------------------|
|-----------------------------|------------------------------------|


  G5
   W
|-------------------------------------------------|
|-------------------------------------------------|
|-------------------------------------------------|
|--5----------------------------------------------|
|--5----------------------------------------------|
|--3----------------------------------------------|
|
|  S  S  S  S  S  S  S  S  S  S  S  S  S  S  S  S
|-------------------------------------------------|
|-17-17-17-17-17-17-17-17-17-17-17-17-17-17-17-17-|
|-------------------------------------------------|
|-------------------------------------------------|
|-------------------------------------------------|
|-------------------------------------------------|


                              E5                                E5
  +Q.                S  S     S  S    S  S S  S S  S     E  S S S  S    S  S S  S S  S   Q
|----------------------------------------------------|---------------------------------------|
|----------------------------------------------------|---------------------------------------|
|----------------------------------------------------|---------------------------------------|
|-(5)----------------------------2-------------------|-------------2-------------------------|
|-(5)----------------x--x-----2----------------------|------x-x-2----------------------------|
|-(3)---------------------------------0--0-0--0-0--0-|------------------0--0-0--0-0--0-------|
|
|  S   S  S  S  S  E    E        E       E    S S  S    +Q      S  E       E    S S  S  +Q
|-14--14-14-15-15-17---17b19\------------------------|---------------------------------------|
|-------------------------------10b12r==10---10------|------------10b12r==10---10------------|
|-------------------------------10b12r==10---10-9-12-|-(12)-------10b12r==10---10-9-12-(12)--|
|----------------------------------------------------|---------------------------------------|
|----------------------------------------------------|---------------------------------------|
|----------------------------------------------------|---------------------------------------|


  G5
   W
|-----------------------------------------------------|
|-----------------------------------------------------|
|-----------------------------------------------------|
|--5--------------------------------------------------|
|--5--------------------------------------------------|
|--3--------------------------------------------------|
|
|  S      S  S  S  S  S  S  S  S  S  S  S  S  S  S  S
|-----------------------------------------------------|
|-10b12==10-10-10-10-10-10-10-10-10-10-10-10-10-10-10r|
|-----------------------------------------------------|
|-----------------------------------------------------|
|-----------------------------------------------------|
|-----------------------------------------------------|


  +Q.                     S  S   S    S S S S S S S     S   S S S E S S   S     S S S E E
|---------------------------------------------------|-------------------------------------||
|---------------------------------------------------|-------------------------------------||
|-------------------------5--4---2----4-2-----2-----|---------------5-4---2---------------||
|-(5)-------------------------------------5-4---5-4-|---2---5-4-----------------5-4-2-----||
|-(5)-----------------------------------------------|-----------4-2-------------------2---||
|-(3)-----------------------------------------------|-------------------------------------||
|
|  S   S  S      S  S  S  S  S   H                     +H                 Q.            E
|---------------------------------------------------|-------------------------------------||
|-10--10-10b12==10r10-10-10-10-/12b14---------------|-(12)\-------------/17b19\-----------||
|---------------------------------------------------|-------------------------------------||
|---------------------------------------------------|-------------------------------------||
|---------------------------------------------------|-------------------------------------||
|---------------------------------------------------|-------------------------------------||


   Chorus - no guitars, only bass plays
    

   Out-Chorus
    B5 E5            C5 E5            B5 E5            F#5  B5/F#
    E. E. Q  E E E   E. E. Q  E E E   E. E. Q  E E E   H    H
||-----------------|----------------|----------------|-----------|
||o----------------|----------------|----------------|-----------|
||--4--------------|-5--------------|-4--------------|-----------|
||--4--2--2--2-2-2-|-5--2--2--2-2-2-|-4--2--2--2-2-2-|-4---------|
||o-2--2--2--2-2-2-|-3--2--2--2-2-2-|-2--2--2--2-2-2-|-4----2----|
||-----0--0--0-0-0-|----0--0--0-0-0-|----0--0--0-0-0-|-2----2----|


  B5 E5            C5 E5            B5 E5            F#5  B5
  E. E. Q  E E E   E. E. Q  E E E   E. E. Q  E E E   H    H     4x
|----------------|----------------|----------------|------------||
|----------------|----------------|----------------|-----------o||
|-4--------------|-5--------------|-4--------------|------4-----||
|-4--2--2--2-2-2-|-5--2--2--2-2-2-|-4--2--2--2-2-2-|-4----4-----||
|-2--2--2--2-2-2-|-3--2--2--2-2-2-|-2--2--2--2-2-2-|-4----2----o||
|----0--0--0-0-0-|----0--0--0-0-0-|----0--0--0-0-0-|-2----------||


Duration Legend
---------------
W - whole; H - half; Q - quarter; E - 8th; S - 16th; T - 32nd; X - 64th; a - acciaccatura
+ - note tied to previous; . - note dotted; .. - note double dotted
Uncapitalized letters represent notes that are staccato (1/2 duration)
Irregular groupings are notated above the duration line
Duration letters will always appear directly above the note/fret number it represents the
duration for.  Duration letters with no fret number below them represent rests.  Multi-
bar rests are notated in the form Wxn, where n is the number of bars to rest for.  Low
melody durations appear below the staff

Tablature Legend
----------------
 h   - hammer-on
 p   - pull-off
 b   - bend
 pb  - pre-bend
 r   - bend release (if no number after the r, then release immediately)
 /\  - slide into or out of (from/to "nowhere")
 s   - legato slide
 S   - shift slide
  - natural harmonic
[n]  - artificial harmonic
n(n) - tapped harmonic
 ~   - vibrato
 tr  - trill
 T   - tap
 TP  - trem. picking
 PM  - palm muting
\n/  - tremolo bar dip; n = amount to dip
 \n  - tremolo bar down
 n/  - tremolo bar up
/n\  - tremolo bar inverted dip
 =   - hold bend; also acts as connecting device for hammers/pulls
 <>  - volume swell (louder/softer)
 x   - on rhythm slash represents muted slash
 o   - on rhythm slash represents single note slash

Misc Legend
-----------
 |  - bar
||  - double bar
||o - repeat start
o|| - repeat end
*|  - double bar (ending)
 :  - bar (freetime)
 $  - Segno
 &  - Coda
Tempo markers -  = BPM(8/16=s8/s16), where s8 = swing 8ths, s16 = swing 16ths
Suggest correction
What's this?
You can suggest a correction to this tab. Community and Mods will review your correction and vote to approve or reject it.
comments
print report bad tab
guest
You may want to rate the tab now too:
select rating
Please do not post tabs as comments. Select "correction" instead!