Oops, an error
Loading. Please wait.

Burn In Hell Bass Tab

version 3
version 3

Whole song

Interactive

994 views 1 this week
no commentswrite comment
1 2 3 4 5
1 last vote to show rating
add to favorites
launch autoscroll
font size
0
reset
guitar tuner
Autoscroll
slow
fast
+/-
esc
set tempo
stop
Help us to improve Ultimate-Guitar.com Take our survey!
×
Author
dIntro

|--------------------|--------------------|
|--------------------|--------------------|
|---------------5----|3----3--5-----------|  X4
|0--------0-0--------|------------3--2----|


First verse pattern

|--------------------|--------------------|
|.-------------------|-------------------.|
|.-------------------|-------------------.|   X3
|-0----0--0----------|0----0--0---3--2----|


|--------------------|--------------------|
|--------------------|--------------------|
|--------------------|--------------------|
|0-----0--0----------|0----0--0---0--2----|


|--------------------|--------------------|
|.-------------------|-------------------.|
|.-------------------|-------------------.|    X3
|-3----3--3----------|0----0--0---0--2----|


|--------------------|--------------------|
|--------------------|--------------------|
|--------------------|--------------------|
|3-----2----1--------|--------------------|



Build-up  "Your gonna burn in hell..."

|--------------------|--------------------|
|--------------------|--------------------|
|2-------------------|3-------------------|  x2
|-------0---0---0-0-0|-------0--0----0-0-0|
 


Second verse

|--------------------|--------------------|
|--------------------|--------------------|
|--------------------|--------------------|
|0-------------------|3--2--0----3--2--0--|


|--------------------|--------------------|
|--------------------|--------------------|
|2-------------------|3-------------------|  
|-------0---0---0-0-0|-------0--0----0-0-0|

 
|--------------------|--------------------|
|--------------------|--------------------|
|--------------------|2--0-------2--0-----|
|0-------------------|------3----------3--|
 

|--------------------|--------------------|
|--------------------|--------------------|
|2-------------------|3-------------------|
|-------0---0---0-0-0|-------0--0----0-0-0|


|--------------------|
|--------------------|
|0~------------------|
|--------------------|


|--------------------|--------------------|
|--------------------|--------------------|   
|-----9--------------|-----9--------------|  
|77-10--0---0-0---0--|77-10--0---0-0---0--|


|--------------------|
|--------------------|
|0~------------------|
|--------------------|


|--------------------|--------------------|
|--------------------|--------------------|
|2-------------------|3-------------------| 
|-------0---0---0-0-0|-------0--0----0-0-0|


|--------------------|--------------------|
|--------------------|3/6-----------------|
|2-------------------|--------------------|
|-------0---0---0-0-0|--------------------|


|--------------------|--------------------|
|--------------------|--------------------|
|--------------------|--------------------|
|0-------------------|3--2--0----2--3--0--|


|--------------------|--------------------|
|--------------------|--------------------|
|2-------------------|3-------------------|  
|-------0---0---0-0-0|-------0--0----0-0-0|

 
|--------------------|--------------------|
|--------------------|--------------------|
|--------------------|2--0-------2--0-----|
|0-------------------|------3----------3--|
 

|--------------------|--------------------|
|--------------------|--------------------|
|2-------------------|3-------------------|
|-------0---0---0-0-0|-------0--0----0-0-0|


|--------------------|
|--------------------|
|0~------------------|
|--------------------|


|--------------------|--------------------|
|--------------------|--------------------|   
|-----9--------------|-----9--------------|  
|77-10--0---0-0---0--|77-10--0---0-0---0--|


|--------------------|
|--------------------|
|0~------------------|
|--------------------|


|--------------------|--------------------|
|--------------------|--------------------|
|2-------------------|3-------------------| 
|-------0---0---0-0-0|-------0--0----0-0-0|


|--------------------|--------------------|
|--------------------|4/1-----------------|
|2-------------------|--------------------| 
|-------0---0---0-0-0|--------------------|


|--------------------|--------------------|
|--------------------|--------------------|
|2-------------------|3-------------------| 
|-------0---0---0-0-0|-------0--0----0-0-0|


|--------------------|--------------------|
|--------------------|3/6-----------------|
|2-------------------|--------------------| 
|-------0---0---0-0-0|--------------------|


|--------------------|--------------------|
|--------------------|--------------------|
|--------------------|--------------------|
|0-------------------|3--2--0----2--3--0--|


|--------------------|--------------------|
|--------------------|--------------------|
|2-------------------|3-------------------|  
|-------0---0---0-0-0|-------0--0----0-0-0|
 

|--------------------|--------------------|
|--------------------|--------------------|
|--------------------|2--0-------2--0-----|
|0-------------------|------3----------3--|
 

|--------------------|--------------------|
|--------------------|--------------------|
|2-------------------|3-------------------|
|-------0---0---0-0-0|-------0--0----0-0-0|


|--------------------|
|--------------------|
|0~------------------|
|--------------------|


|--------------------|--------------------|
|--------------------|--------------------|   
|-----9--------------|-----9--------------|  
|77-10--0---0-0---0--|77-10--0---0-0---0--|


|--------------------|
|--------------------|
|0~------------------|
|--------------------|

play the next part 6x then fade out
|--------------------|--------------------|	     
|--------------------|4/1-----------------|	     
|2-------------------|--------------------| 
|-------0---0---0-0-0|--------------------|


|--------------------|--------------------|
|--------------------|--------------------|
|2-------------------|3-------------------| 
|-------0---0---0-0-0|-------0--0----0-0-0|


|--------------------|--------------------|
|--------------------|3/6-----------------|
|2-------------------|--------------------| 
|-------0---0---0-0-0|--------------------|
Suggest correction
Give kudos to tab author, rate the tab!
1 2 3 4 5
comments
print report bad tab
guest
You may want to rate the tab now too:
select rating
Wanna post a correction for this tab? Suggest correction