Oops, an error
Loading. Please wait.

Burn In Hell tab

version 3
version 3

Whole song

Interactive

7,676 views 1 this week
no commentswrite comment
1 2 3 4 5
x 5
add to favorites
×
Save as Personal and add changes to this tab that will be seen only by you. Learn more ›
×
You can save this tab as Personal to edit and correct it or add notes. All changes will be seen only by you. Learn more »
launch autoscroll
font size
0
reset
how to read this tab
guitar tuner
edit
Autoscroll
slow
fast
+/-
esc
set tempo
stop
Author
Band:  Dimmu Borgir
Album: Puritanical Euphoric Misanthropia
Song:  Burn in Hell (Twister Sisters cover)

Copyright (c) Nuclear Blast Records, 2001
Version 1.0 - 2001

Transcribed by:  Alexander Westers
E-mail:          infernal_purge@hotmail.com

Note:
Tuning is custom E
e|
B|
G|
D|
A|
E|

Note:
=   = let ring
~   = vibrato
b   = full step bend:
b== = hold bend
r   = release bend
p   = pull off

Riff 1
|--------------|----------------|
|--------------|----------------|
|-----------7=-|-5==--5--7=-----|
|-2=-2--2=--7=-|-5==--5--7=-5-4-|
|-2=-2--2=--5=-|-3==--3--5=-5-4-|
|-0=-0--0=-----|------------3-2-|

Solo:
Right Box Guitar:
------|----------------------|-10=-10------------|
---12-|------12-1012-13-1213-|--------13~~-------|
-12---|-12==-----------------|-------------------|
------|----------------------|-------------------|
------|----------------------|-------------------|
------|----------------------|-------------------|
      |                      |                   |
      | Left box Guitar:     |                   |
------|----------------------|-10=-10------------|
------|------12-1012-13-1213-|--------13~~--1715-|
---12-|----------------------|-------------------|
-14---|-14==-----------------|-------------------|
------|----------------------|-------------------|
------|----------------------|-------------------|

Right Box Guitar
|----------------------17---17-|-17b==--17b-17=---17h19-17---------|
|----2019-20=--20-1920----20---|---------------------------20==----|
|------------------------------|-----------------------------------|
|------------------------------|-----------------------------------|
|------------------------------|-----------------------------------|
|------------------------------|-----------------------------------|
|                              |                                   |
| Left Box Guitar              |                                   |
|----------------------17---17-|-17b==--17b-17---------------------|
|-17===--------20-1920----20---|---------------------20-19-17==----|
|------------------------------|-----------------------------------|
|------------------------------|-----------------------------------|
|------------------------------|-----------------------------------|
|------------------------------|-----------------------------------|

Riff 2:
|-----------------|----------------|-----------------|----------------|
|-----------------|----------------|-----------------|----------------|
|-----------------|----------------|-----------------|----------------|
|-2=---2-2===-----|-2=---2-2=--5-4-|-2=---2-2===-----|-2=---2-2=--5-4-|
|-2=---2-2===-----|-2=---2-2=--5-4-|-2=---2-2===-----|-2=---2-2=--5-4-|
|-0=---0-0===-----|-0=---0-0=--3-2-|-0=---0-0===-----|-0=---0-0=--3-2-|

|-----------------|----------------|-----------------|----------------|
|-----------------|----------------|-----------------|----------------|
|-----------------|----------------|-----------------|----------------|
|-2=---2-2===-----|-2=---2-2=--5-4-|-2=---2-2===-----|-2=---2-2=--2-4-|
|-2=---2-2===-----|-2=---2-2=--5-4-|-2=---2-2===-----|-2=---2-2=--2-4-|
|-0=---0-0===-----|-0=---0-0=--3-2-|-0=---0-0===-----|-0=---0-0=--0-2-|

|-----------------|----------------|-----------------|----------------|
|-----------------|----------------|-----------------|----------------|
|-----------------|----------------|-----------------|----------------|
|-5=---5-5===-----|-2=---2-2=--2-4-|-5=---5-5===-----|-2=---2-2=--2-4-|
|-5=---5-5===-----|-2=---2-2=--2-4-|-5=---5-5===-----|-2=---2-2=--2-4-|
|-3=---3-3===-----|-0=---0-0=--0-2-|-3=---3-3===-----|-0=---0-0=--0-2-|

|-----------------|----------------|-----------------|----------------|
|-----------------|----------------|-----------------|----------------|
|-----------------|----------------|-----------------|----------------|
|-5=---5-5===-----|-2=---2-2=--2-4-|-5==----4===-----|-3======--------|
|-5=---5-5===-----|-2=---2-2=--2-4-|-5==----4===-----|-3======--------|
|-3=---3-3===-----|-0=---0-0=--0-2-|-3==----2===-----|-1======--------|

============================================================================

Riff 3:
a)
|-----------------|-----------------|-----------------|-----------------|
|-----------------|-----------------|-----------------|-----------------|
|-4=--------------|-5=--------------|-4=--------------|-5=--------------|
|-4=-2=-2=-2=-2-2-|-5=-2=-2=-2=-2-2-|-4=-2=-2=-2=-2-2-|-5=-2=-2=-2=-2-2-|
|-2=-2=-2=-2=-2-2-|-3=-2=-2=-2=-2-2-|-2=-2=-2=-2=-2-2-|-3=-2=-2=-2=-2-2-|
|----0=-0=-0=-0-0-|----0=-0=-0=-0-0-|----0=-0=-0=-0-0-|----0=-0=-0=-0-0-|

b)
|-----------------|-----------------|-----------------|-----------------|
|-----------------|-----------------|-----------------|-----------------|
|-----------------|-----------------|-4=--------------|-5=--------------|
|-2======---------|-5=-4=-2-4=-5=-4-|-4=-2=-2=-2=-2-2-|-5=-2=-2=-2=-2-2-|
|-2======---------|-5=-4=-2-4=-5=-4-|-2=-2=-2=-2=-2-2-|-3=-2=-2=-2=-2-2-|
|-0======---------|-3=-2=-0-2=-3=-2-|----0=-0=-0=-0-0-|----0=-0=-0=-0-0-|

c)
|-----------------|-----------------|-----------------|-----------------|
|-----------------|-----------------|-----------------|-----------------|
|-----------------|-----------------|-4=--------------|-5=--------------|
|-2======---------|-9=-7=-5-9=-7=-5-|-4=-2=-2=-2=-2-2-|-5=-2=-2=-2=-2-2-|
|-2======---------|-9=-7=-5-9=-7=-5-|-2=-2=-2=-2=-2-2-|-3=-2=-2=-2=-2-2-|
|-0======---------|-7=-5=-3-7=-5=-3-|----0=-0=-0=-0-0-|----0=-0=-0=-0-0-|

d)
|-----------------|------------------|------------------|-----------------|
|-----------------|------------------|------------------|-----------------|
|-2======---------|-2=-2=-2-2=-2-----|------------------|-----------------|
|-2======---------|-2=-2=-2-2=-2-----|-2=---------------|-2=--------------|
|-0======---------|-0=-0=-0-0=-0--23-|---------------23-|-----------------|
|-----------------|--------------3---|----0=-0-0=-0-3---|----0=-0=-0=-0-0-|
                                 ...                ...

e)                                   / This is the way Dimmu Borgir plays it\
|-----------------|-----------------|--------------------|-------------------|
|-----------------|-----------------|--------------------|-------------------|
|-2======---------|-2=-2=-2-2=-2=-2-|-42-2---------------|-5424-2------------|
|-2======---------|-2=-2=-2-2=-2=-2-|---5--5454-2542-42--|-------542---------|
|-0======---------|-0=-0=-0-0=-0=-0-|------------------2-|-----------2.------|
|-----------------|-----------------|--------------------|-------------------|


a')
|-----------------|-----------------|-----------------|-----------------|
|-----------------|-----------------|-----------------|-----------------|
|-4=--------------|-5=--------------|-4=--------------|-----------------|
|-4=-2=-2=-2=-2-2-|-5=-2=-2=-2=-2-2-|-4=-2=-2=-2=-2-2-|-----------------|
|-2=-2=-2=-2=-2-2-|-3=-2=-2=-2=-2-2-|-2=-2=-2=-2=-2-2-|---------2===----|
|----0=-0=-0=-0-0-|----0=-0=-0=-0-0-|----0=-0=-0=-0-0-|-2===------------|

b)
|-----------------|-----------------|-----------------|-----------------|
|-----------------|-----------------|-----------------|-----------------|
|-----------------|-----------------|-4=--------------|-5=--------------|
|-2======---------|-5=-4=-2-4=-5=-4-|-4=-2=-2=-2=-2-2-|-5=-2=-2=-2=-2-2-|
|-2======---------|-5=-4=-2-4=-5=-4-|-2=-2=-2=-2=-2-2-|-3=-2=-2=-2=-2-2-|
|-0======---------|-3=-2=-0-2=-3=-2-|----0=-0=-0=-0-0-|----0=-0=-0=-0-0-|

c)
|-----------------|-----------------|-----------------|-----------------|
|-----------------|-----------------|-----------------|-----------------|
|-----------------|-----------------|-4=--------------|-5=--------------|
|-2======---------|-9=-7=-5-9=-7=-5-|-4=-2=-2=-2=-2-2-|-5=-2=-2=-2=-2-2-|
|-2======---------|-9=-7=-5-9=-7=-5-|-2=-2=-2=-2=-2-2-|-3=-2=-2=-2=-2-2-|
|-0======---------|-7=-5=-3-7=-5=-3-|----0=-0=-0=-0-0-|----0=-0=-0=-0-0-|

d)
|-----------------|------------------|------------------|-----------------|
|-----------------|------------------|------------------|-----------------|
|-2======---------|-2=-2=-2-2=-2-----|------------------|-----------------|
|-2======---------|-2=-2=-2-2=-2-----|-2=---------------|-2=--------------|
|-0======---------|-0=-0=-0-0=-0--23-|---------------23-|-----------------|
|-----------------|--------------3---|----0=-0-0=-0-3---|----0=-0=-0=-0-0-|
                                 ...                ...

e)
|-----------------|-----------------|--------------------|-------------------|
|-----------------|-----------------|--------------------|-------------------|
|-2======---------|-2=-2=-2-2=-2=-2-|-42-2---------------|-5424-2------------|
|-2======---------|-2=-2=-2-2=-2=-2-|---5--5454-2542-42--|-------542---------|
|-0======---------|-0=-0=-0-0=-0=-0-|------------------2-|-----------2.------|
|-----------------|-----------------|--------------------|-------------------|

a')
|-----------------|-----------------|-----------------|-----------------|
|-----------------|-----------------|-----------------|-----------------|
|-4=--------------|-5=--------------|-4=--------------|-----------------|
|-4=-2=-2=-2=-2-2-|-5=-2=-2=-2=-2-2-|-4=-2=-2=-2=-2-2-|-----------------|
|-2=-2=-2=-2=-2-2-|-3=-2=-2=-2=-2-2-|-2=-2=-2=-2=-2-2-|---------2===----|
|----0=-0=-0=-0-0-|----0=-0=-0=-0-0-|----0=-0=-0=-0-0-|-2===------------|

a')
|-----------------|-----------------|-----------------|-----------------|
|-----------------|-----------------|-----------------|-----------------|
|-4=--------------|-5=--------------|-4=--------------|-----------------|
|-4=-2=-2=-2=-2-2-|-5=-2=-2=-2=-2-2-|-4=-2=-2=-2=-2-2-|-----------------|
|-2=-2=-2=-2=-2-2-|-3=-2=-2=-2=-2-2-|-2=-2=-2=-2=-2-2-|---------2===----|
|----0=-0=-0=-0-0-|----0=-0=-0=-0-0-|----0=-0=-0=-0-0-|-2===------------|


The following pieces are with solo of both guitarists: Left and then Right:

b1)
Right Box Guitar
|-----------------|-----------------|
|-----------------|-----------------|
|-----------------|-----------------|
|-2======---------|-5=-4=-2-4=-5=-4-|
|-2======---------|-5=-4=-2-4=-5=-4-|
|-0======---------|-3=-2=-0-2=-3=-2-|
|                 |                 |
| Left Box Guitar |                 |
|-7--5----5-------|-----------------|
|-------8----8--7-|-8--7--5-7--5----|
|-----------------|---------------7-|
|-----------------|-----------------|
|-----------------|-----------------|
|-----------------|-----------------|

b2)
Right Box Guitar
|-15p14p12--15p14p12---15p14p12--15p14p12---|---------------------|
|---------12--------12---------12--------12-|--(Repeat first bar)-|
|-------------------------------------------|---------------------|
|-------------------------------------------|---------------------|
|-------------------------------------------|---------------------|
|-------------------------------------------|---------------------|
|                                           |                     |
| Left Box Guitar                           |                     |
|-------------------------------------------|---------------------|
|-------------------------------------------|---------------------|
|--4===-------------------------------------|-5=------------------|
|--4===----2===----2===----2==----2==---2=--|-5=--2=--2=--2=--2-2-|
|--2===----2===----2===----2==----2==---2=--|-3=--2=--2=--2=--2-2-|
|----------0===----0===----0==----0==---0=--|-----0=--0=--0=--0-0-|


c)
Right Box Guitar:
|-------------------|-----------------------|
|-------------------|-----------------------|
|-------------------|-----------------------|
|-2======-----------|-9=--7=--5--9=--7=--5--|
|-2======-----------|-9=--7=--5--9=--7=--5--|
|-0======-----------|-7=--5=--3--7=--5=--3--|
|                   |                       |
| Left Box Guitar   |                       |
|-17-15----17-15----|-----------------------|
|-------17-------17-|-15b-15b-15-15b-15b-15-|
|-------------------|-----------------------|
|-------------------|-----------------------|
|-------------------|-----------------------|
|-------------------|-----------------------|

c2)
Right Box Guitar
|--7--5------------|--7--5------------|
|--------8--5--5-5-|--------8--5--5-5-|
|---------------7--|---------------7--|
|------------------|------------------|
|------------------|------------------|
|------------------|------------------|
|                  |                  |
| Left Box Guitar  |                  |
|------------------|------------------|
|------------------|------------------|
|--4=--------------|--5=--------------|
|--4=-2=-2=-2=-2-2-|--5=-2=-2=-2=-2-2-|
|--2=-2=-2=-2=-2-2-|--3=-2=-2=-2=-2-2-|
|-----0=-0=-0=-0-0-|-----0=-0=-0=-0-0-|

d1)
Right Box Guitar
|-------------------------|-------------------------|
|-------------------------|-------------------------|
|-2======-----------------|--2=--2=--2--2=--2-------|
|-2======-----------------|--2=--2=--2--2=--2-------|
|-0======-----------------|--0=--0=--0--0=--0----23-|
|-------------------------|---------------------3---|
|                         |                     ... |
| Left Box Guitar         |                         |
|-------------------------|-12b-12b-12b-14^-14^-15b-|
|-15b-15b-15b-15b-15b-15b-|-------------------------|
|-------------------------|-------------------------|
|-------------------------|-------------------------|
|-------------------------|-------------------------|
|-------------------------|-------------------------|

d2)
Right Box Guitar
|-----3/5-----------|---3/5-----------|
|---------8-7-5--5--|-------8-7-5-----|
|---------------7-7-|-------------7-7-|
|-2=----------------|-----------------|
|-------------------|-----------------|
|-------------------|-----------------|
|                   |                 |
| Left Box Guitar   |                 |
|-15b---------------|-----------------|
|-------------------|-----------------|
|-------------------|-----------------|
|-------------------|-2=--------------|
|----------------23-|-----------------|
|-----0=-0-0=-0-3---|----0=-0=-0=-0-0-|
                ...

e1)
Note!: Left Box Guitar is the only soloing instrument in this part.
Right Box Guitar
|-------------------|-----------------------|
|-------------------|-----------------------|
|-2======-----------|--2=--2=--2--2=--2=--2-|
|-2======-----------|--2=--2=--2--2=--2=--2-|
|-0======-----------|--0=--0=--0--0=--0=--0-|
|-------------------|-----------------------|
|                   |                       |
| Left Box Guitar   |                       |
|-------------------|-----------------------|
|-10~~--10-10~~--10-|-10~-10~-10-10~-10~-10-|
|-------------------|-----------------------|
|-------------------|-----------------------|
|-------------------|-----------------------|
|-------------------|-----------------------|

e2)
Right Box Guitar
|--------------------|---------------------|
|--------------------|---------------------|
|-42-2---------------|-5424-2--------------|
|---5--5454-2542-42--|-------542-----------|
|------------------2-|-----------2.--------|
|--------------------|---------------------|
|                    |                     |
| Left Box Guitar    |                     |
|--------------------|-10b======-----------|
|-10b======----------|---------------------|
|--------------------|---------------------|
|--------------------|---------------------|
|--------------------|---------------------|
|--------------------|---------------------|

Song ends with riff 3a' fade-out.

            
            
Suggest correction
Creating personal tab
Creating personal tab
You can edit any tab online and save it as your Personal.

You can edit, replace or remove any tab part or add personal notes – all changes will be seen only by you.

Personal tabs can be accessed anytime from any device, even offline.
Learn more »
comments
print report bad tab
guest
You may want to rate the tab now too:
select rating
Wanna post a correction for this tab? Suggest correction