Oops, an error
Loading. Please wait.

Cataclysm Children Tab

version 1
version 1

Whole song

Interactive

2,992 views 1 this week
no commentswrite comment
1 2 3 4 5
accurate
x 4
add to favorites
launch autoscroll
font size
0
reset
how to read this tab
guitar tuner
Tab Pro tools
  • play this tab
  • loop segment
  • change instrument
  • show fretboard
  • metronome
Autoscroll
slow
fast
+/-
esc
set tempo
stop
Contributor
Band:  (DIMMU BORGIR)
Album: (DEATH CULT ARMAGEDDON)
Song:  (CATACLYSM CHILDREN)

Copyright (c)  (NUCLEAR BLAST) (2003)
Version 1.0 - (3-18-04)

Transcribed By: (BestialWarrior)
Email:           Bestialson2003@yahoo.com


.  - palm mute           /  - slide up to
\  - slide down to       ~  - vibrato
h  - hammer on           b  - Bend
p  - pull off            Suffixes for bend
t  - tap                 f  - full bend    h - half bend
ph - pinched harmonic    q  - quarter bend t - tap bend
*  - see comment         ^  - Hold bend    r release bend
x  - Stuccatto           ~  - vibrato bend
,  - slight palm mute    () - ghost note, sustained note
"  - tremolo note        <> - Trill
G  - GALLOP.              S - SUSTAINED NOTE,CHORD..

Tunning : E A D G B E

NOTE: ALL GUITARS DISTORTED UNLESS NOTED.

OPENING: TRANSITION A.
|-------||
|-------||
|-------||
|-------||
|6-5-5-5||
|4-3-6-3||
 . . . .

Riff#1A.GUITAR 1.SLIGHTY FAST/UP/DOWN STROKE PICKING.
|----------------------------------------------------------
|----------------------------------------------------------
|------------4--4-4---------------------------------4--4-4-
|------------2--2-2---------------------------------2--2-2-
|-------------------------------6\5-5-8--------------------
|0-0-0-0-0-0--------0-0-0-0-0-0-4\3-3-6-0-0-0-0-0-0--------
 . . . . . .        . . . . . .         . . . . . .

RIFF#1A.GUITAR 1. CONTINUED..
                     FILL.
|------------|-----|-------||
|------------|-----|-------||
|------------|8\6-3|-------||
|------------|6\4-1|-------||
|------------|-----|6-5-8-5||
|0-0-0-0-0-0-|-----|4-3-6-3||
 . . . . . .        . . . .

RIFF#1B.GUITAR 2./PLAYS THIS ONCE. MODERATELY FAST.
(COMES IN AFTER GUITAR 1 PLAYS RIFF#1/WITHOUT THE FILL..)
|---------------------------------------------------------------||
|---------------------------------------------------------------||
|---------------------------------------------------------------||
|---------------------------------------------------------------||
|-G---G---G---G---G---G---G---G---G---G---G---G---G---G--6-5-8-5||
|000-000-000-000-000-000-000-000-000-000-000-000-000-000-4-3-6-3||
 ... ... ... ... ... ... ... ... ... ... ... ... ... ... . . . .

REPEAT RIFF#1A.BOTH GUITARS.

TRANSITION B. GUITAR 1.MODERATELY FAST.
|-------------------------------------------------------------||
|-------------------------------------------------------------||
|-3-3-3-3-3-3-2-2-3-2-3-2-------3-3-3-3-3-3-2-2-3-2-3-2-------||
|-3-3-3-3-3-3-2-2-3-2-3-2-------3-3-3-3-3-3-2-2-3-2-3-2-6-5-7-||
|-1-1-1-1-1-1-1-1-1-1-1-1-5-5-5-1-1-1-1-1-1-1-1-1-1-1-1-4-3-5-||
|-------------------------3-3-3-------------------------4-3-5-||

TRANSITION B. GUITAR 2.
|-------------------------------------------------------------||
|-------------------------------------------------------------||
|-------------------------------------------------------------||
|-------------------------------------------------------6-5-7-||
|5------------------------5-5-5-------------------------4-3-5-||
|3------------------------3-3-3-------------------------4-3-5-||

RIFF#2. BOTH GUITARS. MODERATELY FAST/DOWN PICKING..
|-------------------------------------------------------------------
|-------------------------------------------------------------------
|------------------------------4-4-4-5------------------------------
|------------------------------2-2-2-3------------------------------
|2-2-2-2-2-2-2-3-2-2-2-2-2-2-2---------2-2-2-2-2-2-2-3-2-2-2-2-2-2-2
|0-0-0-0-0-0-0-1-0-0-0-0-0-0-0---------0-0-0-0-0-0-0-1-0-0-0-0-0-0-0
 . . . . . .       . . . . . .         . . . . . .       . . . . . .

RIFF#2. CONTINUED..
|---------------------------------------------------------------
|---------------------------------------------------------------
|5-5-5-4-------------------------------4-4-4-5------------------
|3-3-3-2-------------------------------2-2-2-3------------------
|--------2-2-2-2-2-2-2-3-2-2-2-2-2-2-2---------2-2-2-2-2-2-2-3-2
|--------0-0-0-0-0-0-0-1-0-0-0-0-0-0-0---------0-0-0-0-0-0-0-1-0
         . . . . . .       . . . . . .         . . . . . .

RIFF#2. CONTINUED...
|----------------||
|----------------||
|------4-----4---||
|------4-3-2-4-2-||
|3-3-3---3-2---2-||
|1-1-1-----------||
 . . .

REPEAT RIFF#1A. BOTH GUITARS.

RIFF#3A. GUITAR 1. MODERATELY FAST.
|----------------------------------------------------------------||
|----------------------------------------------------------------||
|----------------------------------------------------------------||
|--------------4-3-----------3/4---------------------------------||
|2-2-2-2-5\4-2-2-1-1-1-1-1-0-1/2---------5\4-2-5-4-------5\4-5\4-||
|0-0-0-0-3\2-0-------------------0-0-0-0-3\2-0-3-2-2-2-2-3\2-3\2-||
 . . . .           . . . .       . . . .           . . .

RIFF#3B. GUITAR 2./CLEAN..
|-----------------------------------------------------------0----||
|----------0-----------0---0------------0-------------0---0---0--||
|----4---4---4-----4-----0--------4---4---4-----4---4---4--------||
|--2---2---------2---2----------2---2---------2---2--------------||
|2-------------2--------------2-------------2--------------------||
|----------------------------------------------------------------||

TRANSITION C.
|-----------------------------------------------------------
|-----------------------------------------------------------
|-----------------------3-----------------------------------
|-----------------------------------------------------------
|2-2222-2-2222-2-2222-3---2-2-2222-2-2222-2-2222-5-4-3-2--2-
|0-0000-0-0000-0-0000-2-----0-0000-0-0000-0-0000-3-2-1-0--0-
 . .... . .... . ....       . .... . .... . ....   . . .  .

TRANSITION C, CONTINUED.
|-------------------------------------------------||
|-------------------------------------------------||
|----------------3---------------------3-------4--||
|------------------------------------3---3---4---4||
|2-2222-2-2222-3---2-2-2222-2-2222-2-------3------||
|0-0000-0-0000-2-----0-0000-0-0000----------------||
 . .... . ....       . .... . ....

RIFF#4.FAST. BOTH GUITARS.
|------------------------------------------------------------------
|------------------------------------------------------------------
|---------4----------------3----------4----------------------------
|---------2---------------------------2----------------------------
|2-----------------------3---2-----------------------5-4-3-2-------
|0-000000---000000000000-2-----000000---000000000000-3-2-1-0-000000
   ......   ............       ......   ............   . . . ......

RIFF#4. CONTINUED..
|-----------------------------------|---------------
|-----------------------------------|---------------
|4---------------3----------4-------|----3-------3--
|2-----------------2--------2-------|--3---3---4---3
|--------------3--------------------|2-------3------
|--00000000000-2-----000000---000000|---------------
   ...........       ......   ......

RIFF#4.CONTINUED!.
            (FILL)
|-----------------------------||
|------------------4-------5--||
|----3-------4---3---3---4---4||
|--3---3---4---2-------3------||
|2-------3--------------------||
|-----------------------------||

RIFF#5.(HALF NOTE CHORDS)SLOW/MODERATELY...
|0--0----------------------0--0--------------------0--0------------
|0--0----------------------0--0--------------------0--0------------
|4--4----------------------4--4--------------------4--4------------
|4--4--5--5--2--2----------4--4--5--5--2--2--------4--4--5--5--2--2
|2--2--5--5--2--2----------2--2--5--5--2--2--------2--2--5--5--2--2
|------3--3--0--0----------------3--3--0--0--------------3--3--0--0
                S                         S                       S

RIFF#5. CONTINUED..
|0--0-----------------------||
|0--0-----------------------||
|4--4-----------------------||
|4--4--5--5--2--2--2--------||
|2--2--5--5--2--2--2--------||
|------3--3--0--0--0--------||
             .  .  S

REPEAT RIFF#3B.GUITAR 1. AFTER ONE TIME, GUITAR 2 COMES IN:

RIFF#7.GUITAR 2./WHILE GUITAR 1 IS PLAYING #3B./SLOW.
|-------------------------------||
|-------------------------------||
|-------------------------------||
|-----3-------------------------||
|2----1--1-1--1-1-1----1~-1-1-1-||
|0----1-------------------------||
 S       . .  . . .       . . .

REPEAT RIFF#2.

TRANSITION D.
|----------------||
|----------------||
|----3-------4---||
|--3---3---4---4-||
|2-------3-------||
|----------------||

REPEAT RIFF#5/WITHOUT PALM MUTING AT END..
SOLO 2 COMES IN

TRANSITION E.
|--------------------------------||
|--------------------4-------5---||
|----3-------4-----3---3---4---4-||
|--3---3---4---4-2-------3-------||
|2-------3-----------------------||
|--------------------------------||


END RIFF.
NOTE:SLIDE DOESN'T HAVE TO BE ACCURATE,
|------------||
|------------||
|------------||
|------9-\-4-||
|2--2--7---2-||
|0--0--7-\-2-||
 .  .
comments
print report bad tab
I want to post or [tab]
guest
You may want to rate the tab now too:
select rating
Please do not post tabs as comments. Select "correction" instead!