Oops, an error
Loading. Please wait.

Cataclysm Children Tab

version 2
version 2

Whole song

Interactive

2,390 views 1 this week
2 commentsread comments
1 2 3 4 5
x 3
add to favorites
launch autoscroll
font size
0
reset
how to read this tab
guitar tuner
Autoscroll
slow
fast
+/-
esc
set tempo
stop
Help us to improve Ultimate-Guitar.com Take our survey!
×
Dimmu Borgir 
Cataclysm Children 



Intro:

-|------------|-
-|------------|-
-|------------|-
-|--5-4--3-4--|-
-|--5-4--1-4--|-
-|--3-2----2--|-
    > >  > >

-|---------------------------------|-
-|---------------------------------|-
-|---------------------------------|-
-|-----------9-9-------------------|-
-|-----------7-7----------6\\5-5/8--|-
-|--00000000-----00000000-4\\3-3/6--|-


-|--------------------------------|-
-|--------------------------------|-
-|------------------------7-6-----|-
-|-----------9-9----------5-4--8--|-
-|-----------7-7---------------6--|-
-|--00000000-----00000000---------|-



-|--------------------------------------------------------------------|-
-|--------------------------------------------------------------------|-
-|--------------------------------------------------------------------|-
-|---------------------------------------------------------------3----|-
-|-----------------------------------------------------------5-4-1-4--|-
-|--000-000-000-000-000-000-000-000-000-000-000-000-000-000--3-2---2--|-



-|-------------------------|-
-|-------------------------|-
-|-------------3-3-2--3-2--|-
-|--5-5-5--4-5-------------|-
-|-------------------------|-
-|-------------------------|-

-|----------|-
-|----------|-
-|----------|-
-|----------|-
-|--5-4-5---|-
-|--3-2-3---|-

-|-------------------------|-
-|-------------------------|-
-|-------------3-3-2--3-2--|-
-|--5-5-5--4-5-------------|-
-|-------------------------|-
-|-------------------------|-


Verse:

-|--------------------------|-
-|--------------------------|-
-|------------------1--1-2--|-
-|------------------2--2-3--|-
-|--2222222-3-22222---------|-
-|--0000000-1-00000---------|-

-|--------------------------|-
-|------------------2-1-2-1-|-
-|------------------3-2-3-2-|-
-|--2222222-3-22222---------|-
-|--0000000-1-00000---------|-

-|----------------------|-
-|----------------------|-
-|----------------------|-
-|----------------------|-
-|--22222222-33333333---|-
-|--00000000-11111111---|-



-|--------------------|-
-|-------0--------0---|-
-|-----0----x-3-4-----|-
-|-x-2----------------|-
-|--------------------|-
-|--------------------|-

-|--------------------|-
-|-------0------0-5---|-
-|-----0------3-------|-
-|-x-2------x---------|-
-|--------------------|-
-|--------------------|-

-|-----------------------|-
-|-----------------------|-
-|-----------------------|-
-|----------4-3333333-4--|-
-|--2222222-2-1111111-2--|-
-|--0000000--------------|-


bridge

-|-----------------------------------|-
-|-----------------------------------|-
-|-----------------------------------|-
-|-----------------------------8-5---|-
-|---------------------------4-------|-
-|--0-0000000-0000000-000000---------|-

-|------------------------------------|-
-|------------------------------------|-
-|------------------------------------|-
-|---------------------------5-4-3-2--|-
-|---------------------------5-4-3-2--|-
-|--0-0000000-0000000-000000-3-2-1-0--|-

02:16

-|---------------|-
-|---------------|-
-|---------------|-
-|------7-----8--|-
-|----7-----8----|-
-|--6-----7------|-


Chorus:


-|--------------------------|-
-|--------------------------|-
-|--------7-----4-----------|-
-|--2-----7-----4----2-2-2--|-
-|--2-----5-----2----2-2-2--|-
-|--0----------------0-0-0--|-


Guitar solo (with Chorus riff) (fade in):

-|----------------------------------------------------------|-
-|------------------------12---11-12-11---------------------|-
-|-------------------11-12--------------12---11-12-11-9~*---|- (pinch harmonic)
-|----------------12----------------------------------------|-
-|----------10-14-------------------------------------------|-
-|--(10)-12-------------------------------------------------|-

-|-----------------------|-
-|--12-------------------|-
-|----12-11--------------|-
-|----------12-14-12-11--|-
-|-----------------------|-
-|-----------------------|-

-|-----------------------------------------------|-
-|-----------------------------------------------|-
-|-----------------------------------------------|-
-|--------------------------------9--11-9-11/12--|-
-|----------7--9-7-9-10--12-11-12----------------|-
-|--10-9-10--------------------------------------|-
   _P.M.____/

  All notes are speed picked:

-|--------------------------|-
-|----------------------14--|-
-|----------------11-15-----|-
-|-------------12-----------|-
-|-----9-10-13--------------|-
-|--12----------------------|-

Layered and harmonised guitars:

-|--------------------------------------------------------------------------|-
-|--15p14----------14-15p14----------14-15p14----------14-15p14----------14-|-
-|--------16-15-16----------16-15-16----------16-15-16----------16-15-16----|-
-|--------------------------------------------------------------------------|-
-|--------------------------------------------------------------------------|-
-|--------------------------------------------------------------------------|-
 |
-|--------------------------------------------------------------------------|-
-|--------------------------------------------------------------------------|-
-|--12p11----------11-12p11----------11-12p11----------11-12p11----------11-|-
-|--------14-13-14----------14-13-14----------14-13-14----------14-13-14----|-
-|--------------------------------------------------------------------------|-
-|--------------------------------------------------------------------------|-

-|--15p14----------14-15p14----------14---------|-
-|--------17-16-17----------17-16-17-----17-\\--|-
-|----------------------------------------------|-
-|----------------------------------------------|-
-|----------------------------------------------|-
-|----------------------------------------------|-
 |
-|----------------------------------------------|-
-|--13p12----------12-13p12----------12---------|-
-|--------14-13-14----------14-13-14-----14-\\--|-
-|----------------------------------------------|-
-|----------------------------------------------|-
-|----------------------------------------------|-

-|--------------------------------------------------------|-
-|--------------------------------------------------------|-
-|--------------------------------------------------------|-
-|--------------------------------------------------------|-
-|----------------6-7-9--10---9--10-9-10-------/14-12-10--|-
-|--10--9-10-9-7-------------------------0-----/15-14-12--|-

-|--------------------------------------------------|-
-|--------------------------------------------------|-
-|--------------------------------------------------|-
-|--------------------------------------------------|-
-|----------------6-7-9--10---9--10-9-10------------|-
-|--10--9-10-9-7---------------------------3-2-0----|-

-|--12---------------------|-
-|-----12------------------|-
-|--------12--11-12-11--9--|-
-|-------------------------|-
-|-------------------------|-
-|-------------------------|-

all notes are tremolo picked:

-|--12---15---18---21---|-
-|----------------------|-
-|----------------------|-
-|----------------------|-
-|----------------------|-
-|----------------------|-

ending:

-|-------------|-
-|-------------|-
-|--------9\\--|-
-|--2--2--9\\--|-
-|--2--2--7\\--|-
-|--0--0-------|-

keep it metal
Suggest correction
Give kudos to tab author, rate the tab!
1 2 3 4 5
comments
print report bad tab
2 comments total.
0 reply
!,,! (-.-) !,,! 527 Oct 09, 2008 09:43 AM

please rate this tab guys

0 reply
The.Akuma 10 Jul 24, 2010 01:59 PM

Awesome, I've been looking for this ;)

guest
You may want to rate the tab now too:
select rating
Wanna post a correction for this tab? Suggest correction