Oops, an error
Loading. Please wait.

Chaos Without Prophecy Tab

version 2
version 2

Whole song

476 views 1 this week
no commentswrite comment
1 2 3 4 5
please rate
add to favorites
launch autoscroll
font size
0
reset
how to read this tab
guitar tuner
Autoscroll
slow
fast
+/-
esc
set tempo
stop
Help us to improve Ultimate-Guitar.com Take our survey!
×
Author
Song: Chaos Without Prophecy
Band: Dimmu Borgir
Album: Godless Savage Garden
Tabbed by: Conor666Vyle
Tuning: Standard(E,A,D,G,B,e)

Couldn't be bothered with the solo.

Intro Riff:
|-------------------------------|
|-------------------------------|
|-9---9---5---5---9---9---5-----|
|-9---9---5---5---9---9---5-----|
|-7---7---3---3---7---7---3-----|
|-0---0-----------0---0---------|

Riff 1:
|-------------------------|
|-------------------------|
|-9---------5-------------|
|-9---------5-------------|
|-7---------3-------------|   x4
|-0-----------------------|

Riff 2:
|-----------------------------------------------------------------|
|-----------------------------------------------------------------|
|-9-9-----9-9-----9-9-----9-9-----5-5-----5-5-----5-5-----5-5-----|
|-9-9-----9-9-----9-9-----9-9-----5-5-5-5-5-5-5-5-5-5-5-5-5-5-5-5-|
|-7-7-7-7-7-7-7-7-7-7-7-7-7-7-7-7-3-3-3-3-3-3-3-3-3-3-3-3-3-3-3-3-|  x4
|-0-0-0-0-0-0-0-0-0-0-0-0-0-0-0-0---------------------------------|
pm    . .     . .     . .     . .     . .     . .     . .     . .  

Riff 3:
|-----------------|
|-----------------|
|-5---4---5-------|
|-3---2---5-------|
|---------3-------|  x6
|-----------------|

Riff 4:
|-------------------------------------|
|-------------------------------------|
|-5-555555-4-444444-5-555555-5-555555-|
|-3-333333-2-222222-5-555555-5-555555-|
|-------------------3-333333-3-333333-|  x4
|-------------------------------------|
pm  ......   ......   ......   ......

Riff 3:
|-----------------|
|-----------------|
|-5---4---5-------|
|-3---2---5-------|
|---------3-------|  x4
|-----------------|

Riff 5:
|---------------------------------------------------------|
|---------------------------------------------------------|
|-5-------------4-------------5-------------5-------------|
|-3-3-3-6-5-3-5-2-2-2-5-4-2-4-5-------------5-------------|
|-----------------------------3-3-3-6-5-3-5-3-3-3-6-5-3-5-|  x4
|---------------------------------------------------------|

Riff 1:
|-------------------------|
|-------------------------|
|-9---------5-------------|
|-9---------5-------------|
|-7---------3-------------|   x4
|-0-----------------------|

Riff 6: (Guitar 2 plays this while Guitar 1 plays riff 2)
|---------------------------------------------------------
|---------------------------------------------------------
|-9-------------------------------------------------------
|-9-----9-----10-9-7--7-5-4-5-----5-----7/8-7-5-7-5h7p5-1-
|-7-9-7---9-7---------------3-5-3---5-3-------------------
|---------------------------------------------------------
pm  . .   . .         . . .   . .   . .      

---------------------------------------------------------------|
---------------------------------------------------------------|
-9--------------------------------5----------------------------|
-9-----9-----/12-10-9-10-9h10p9-5-5-----5-----/6-5-3-5-3h5p3-1-|
-7-9-7---9-7----------------------3-5-3---5-3------------------|
---------------------------------------------------------------|
pm . .   . .                        . .   . .         

Riff 2: (played under solo)
|-----------------------------------------------------------------|
|-----------------------------------------------------------------|
|-9-9-----9-9-----9-9-----9-9-----5-5-----5-5-----5-5-----5-5-----|
|-9-9-----9-9-----9-9-----9-9-----5-5-5-5-5-5-5-5-5-5-5-5-5-5-5-5-|
|-7-7-7-7-7-7-7-7-7-7-7-7-7-7-7-7-3-3-3-3-3-3-3-3-3-3-3-3-3-3-3-3-|  x2
|-0-0-0-0-0-0-0-0-0-0-0-0-0-0-0-0---------------------------------|
pm    . .     . .     . .     . .     . .     . .     . .     . .  

Riff 7:
|-------------------------------------------------------------|
|-------------------------------------------------------------|
|-------------------------------------------------------------|
|-6--6--6--6-6-6-6--6--6--6-6-6-2--2--2--2-2-2-2--2--2--2-2-2-|
|-7--7--6--6-6-6-7--7--6--6-6-6-3--3--2--2-2-2-3--3--2--2-2-2-|  x12
|-------------------------------------------------------------|

Riff 3:
|-----------------|
|-----------------|
|-5---4---5-------|
|-3---2---5-------|
|---------3-------|  x2
|-----------------|

then riff 3 played another 4 times with palm muting variations

Riff 5:
|---------------------------------------------------------|
|---------------------------------------------------------|
|-5-------------4-------------5-------------5-------------|
|-3-3-3-6-5-3-5-2-2-2-5-4-2-4-5-------------5-------------|
|-----------------------------3-3-3-6-5-3-5-3-3-3-6-5-3-5-|  x4
|---------------------------------------------------------|

then riff 3 played another 4 times with palm muting variations

Riff 4:
|-------------------------------------|
|-------------------------------------|
|-5-555555-4-444444-5-555555-5-555555-|
|-3-333333-2-222222-5-555555-5-555555-|
|-------------------3-333333-3-333333-|  x? (until fade out)
|-------------------------------------|
pm  ......   ......   ......   ......
Suggest correction
Give kudos to tab author, rate the tab!
1 2 3 4 5
comments
print report bad tab
guest
You may want to rate the tab now too:
select rating
Please do not post tabs as comments. Select "correction" instead!