Oops, an error
Loading. Please wait.

Ddsferd Tab

618 views 3 this week
no commentswrite comment
1 2 3 4 5
please rate
add to favorites
launch autoscroll
font size
0
reset
how to read this tab
guitar tuner
Autoscroll
slow
fast
+/-
esc
set tempo
stop
Help us to improve Ultimate-Guitar.com Take our survey!
×
Author
Difficulty
novice
Band:  Dimmu Borgir
Album: Stormblåst 1996
Song:  Dødsferd (as on the record in 1996)

Copyright (c) Cacophonous Records, 1996
Version 1.0 -                      1996
Version 1.1 - (re-release)         2005

Transcribed By: Alexander Westers
Email:          infernal_purge@hotmail.com

Note: tuning is custom E

e|
B|
G|
D|
A|
E|

Note:
/  = slide up
\  = slide down
=  = let ring

Riff 1 (four times):
|---------------|------------------|---------------|---------------|
|---------------|------------------|---------------|---------------|
|-999999-999999-|-9999\55-5/777\44-|-444444-444444-|-444444-444444-|
|-999999-999999-|-9999\55-5/777\44-|-444444-444444-|-444444-444444-|
|-777777-777777-|-7777\33-3/555\22-|-222222-222222-|-222222-222222-|
|---------------|------------------|---------------|---------------|
Note: tabs which state ^^ ^ these chords are half one step higher are
generally wrong. This tab is as accurate as 100%


Riff 2 (four times):
|-----------|-----------|-----------|-----------|
|-----------|-----------|-----------|-----------|
|-----------|-----------|-----------|-----------|
|-2222-2222-/-5555-5555-/-9999-9999-|-9999-9999-|
|-2222-2222-/-5555-5555-/-9999-9999-|-9999-9999-|
|-0000-0000-/-3333-3333-/-7777-7777-|-7777-7777-|

Riff 1 again (four times)

Riff 3 (seven times, first time by Left Box guitar only):
|----------|-----------|-----------|-----------|
|----------|-----------|-----------|-----------|
|----------|-----------|-----------|-----------|
|-22222554-|-5555-5555-|-5555-5775-|-4444-4444-|
|-22222332-|-3333-3333-|-3333-3553-|-2222-2222-|
|-00000----|-----------|-----------|-2222-2222-|

Riff 4 (six times):
|---------------|---------------|-----------------|------------------|
|---------------|---------------|-----------------|------------------|
|-999999-999999-|-888888-888888-|-----------------|------------------|
|-999999-999999-|-888888-888888-|-777777-77101077-|-999999--9-9-9999-|
|-777777-777777-|-666666-666666-|-777777-77101077-|-999999--9-9-9999-|
|---------------|---------------|-555555-55-8-855-|-777777--7-7-7777-|

Left Box Guitar |---------------|                 |------------------|
 (differences)  |---------------|                 |------------------|
                |-111111-111111-|                 |------------------|
The 1's         |-111111-111111-|                 |-999999-101010999-|
are 11's        |-999999-999999-|                 |-999999-101010999-|
                |---------------|                 |-777777--8-8-8777-|

Riff 2 again (four times)

Riff 1 again (four times)

Bridge to riff 5:
----|------------------------------|------------------|
----|------------------------------|------------------|
----|------------------------------|------------------|
-22-|-210910910910910-101010101010-|-101010999-777777-|
-22-|-210910910910910-101010101010-|-101010999-777777-|
-00-|-0/87/87/87/87/8--8-8-8-8-8-8-|--8-8-8777-555555-|

Riff 5(repeat and fade):
Left Box Guitar
|---------------------------|---------------------------|
|---------------------------|---------------------------|
|---------------------------|---------------------------|
|-101010101010-101010101010-|-101010-9-9-9--7-7-7-7-7-7-|
|-101010101010-101010101010-|-101010-9-9-9--7-7-7-7-7-7-|
|--8-8-8-8-8-8--8-8-8-8-8-8-|--8-8-8-7-7-7--5-5-5-5-5-5-|

Right Box Guitar
|---------------------------|---------------------------|
|---------------------------|---------------------------|
|---------------------------|---------------------------|
|--7-7-7-7-7-7--7-7-7-7-7-7-|-101010-9-9-9--7-7-7-7-7-7-|
|--7-7-7-7-7-7--7-7-7-7-7-7-|-101010-9-9-9--7-7-7-7-7-7-|
|--5-5-5-5-5-5--5-5-5-5-5-5-|--8-8-8-7-7-7--5-5-5-5-5-5-|

Keyboard solo over Riff 5 (eight times after the bridge):
|---------12---12=----------|----------------------15=--|
|-----------15---------1513-|-15=-----1312-13=----------|
|-14=-----------------------|---------------------------|
|---------------------------|---------------------------|
|---------------------------|---------------------------|
|---------------------------|---------------------------|

|-12=----------12=----------|---------------------------|
|-----------15---------1513-|-15=-13=-12=---------------|
|---------------------------|---------------------------|
|---------------------------|--------------14=----------|
|---------------------------|---------------------------|
|---------------------------|---------------------------|
Suggest correction
What's this?
You can suggest a correction to this tab. Community and Mods will review your correction and vote to approve or reject it.
comments
We did not receive enough feedback on this tab! Please rate:
print report bad tab
1 2 3 4 5
guest
You may want to rate the tab now too:
select rating
Please do not post tabs as comments. Select "correction" instead!