Oops, an error
Loading. Please wait.

Det Nye Riket Tab

version 3
version 3

Whole song

Interactive

473 views 6 this week
no commentswrite comment
1 2 3 4 5
please rate
add to favorites
launch autoscroll
font size
0
reset
how to read this tab
guitar tuner
Autoscroll
slow
fast
+/-
esc
set tempo
stop
Help us to improve Ultimate-Guitar.com Take our survey!
×
Author
Difficulty
Hello All,

I made a tab for this song performed by mister 654321654321 on Youtube.
Check it out if haven't seen it yet.
I hope this are the right tabs, it's easy to play but so great. Enjoy

                             

      Q    H        E  E     Q    H        E  E     Q    Q     Q.     E   
E||-----------------------|----------------------|-----------------------|
B||--------3--------------|-------3--------------|-------3----/5------3--|
G||*--2-------------2--0--|--2-------------2--0--|--2--------------------|
D||*--0-------------------|----------------------|-----------------------|
A||-----------------------|--3-------------------|--1--------------------|
E||-----------------------|----------------------|-----------------------|


  W                 3x  Q    H        E  E     Q    H        E  E   
--------------------||----------------------|----------------------|
--------------------||-------3--------------|-------3--------------|
--2----------------*||--2-------------2--0--|--2-------------2--0--|
--0----------------*||--0-------------------|----------------------|
--------------------||----------------------|--3-------------------|
--------------------||----------------------|----------------------|


  Q    Q     Q.     E     Q    Q    Q    Q         Q    Q    Q    Q     
-----------------------|----------------------||--------1----3----5----|
-------3----/5------3--|----------------------||--------3----5----6----|
--2--------------------|--2--------------0----||*--2-------------------|
-----------------------|--0----2----3---------||*--0-------------------|
--1--------------------|----------------------||-----------------------|
-----------------------|----------------------||-----------------------|


  Q    Q    Q    Q       Q    Q    Q    Q       Q    Q     Q    Q     3x
-------1----3----5----|-------1----3----5----|--4----5----/7----4-----||
-------3----5----6----|-------3----5----6----|------------------------||
--2-------------------|--2-------------------|-----------------------*||
----------------------|----------------------|-----------------------*||
--3-------------------|--1-------------------|------------------------||
----------------------|----------------------|------------------------||


  Q    H        E  E     Q    H        E  E     Q    Q     Q.     E   
----------------------|----------------------|-----------------------|
-------3--------------|-------3--------------|-------3----/5------3--|
--2-------------2--0--|--2-------------2--0--|--2--------------------|
--0-------------------|----------------------|-----------------------|
----------------------|--3-------------------|--1--------------------|
----------------------|----------------------|-----------------------|


  W                   Q    H        E  E     Q    H        E  E   
-------------------|----------------------|----------------------|
-------------------|-------3--------------|-------3--------------|
--2----------------|--2-------------2--0--|--2-------------2--0--|
--0----------------|--0-------------------|----------------------|
-------------------|----------------------|--3-------------------|
-------------------|----------------------|----------------------|


  Q    Q     Q.     E     Q    Q    Q    Q         E  E  E  E  E  E  E  E   
-----------------------|----------------------||---------1--------1--------|
-------3----/5------3--|----------------------||---------------------------|
--2--------------------|--2--------------0----||*-----2--------2--------2--|
-----------------------|--0----2----3---------||*--0--------0--------0-----|
--1--------------------|----------------------||---------------------------|
-----------------------|----------------------||---------------------------|


  E  E  E  E  E  E  E  E     E  E  E  E  E  E  E  E   
--5--------0--------1-----|--------1--------1--------|
--------------------------|--------------------------|
--------2--------2-----2--|-----2--------2--------2--|
-----0--------0-----------|--------------------------|
--------------------------|--1--------1--------1-----|
--------------------------|--------------------------|


  E  E  E  E  E  E  E  E   3x  E  E  E  E  E  E  E  E   
--0-----------0-----0--1---||--------1--------1--------|
--------2--3---------------||--------------------------|
-----2-----------2--------*||-----2--------2--------2--|
--------------------------*||--0--------0--------0-----|
--0-----------4------------||--------------------------|
---------------------------||--------------------------|


  E  E  E  E  E  E  E  E     E  E  E  E  E  E  E  E   
--5--------0--------1-----|--------1--------1--------|
--------------------------|--------------------------|
--------2--------2-----2--|-----2--------2--------2--|
-----0--------0-----------|--------------------------|
--------------------------|--1--------1--------1-----|
--------------------------|--------------------------|


  E  E  E  E  E  E  E  E     H        H          
--0-----------0-----0--1--|--------------------||
--------2--3--------------|-----------3--------||
-----2-----------2--------|--------------------||
--------------------------|-----------0--------||
--0-----------4-----------|--------------------||
--------------------------|--------------------||



/ -  slide into from below or out of upwards


Duration Legend
---------------
W - whole
H - half
Q - quarter
E - 8th
S - 16th
T - 32nd
X - 64th
. - note dotted
|-n-|  - n-tuplets




Suggest correction
Give kudos to tab author, rate the tab!
1 2 3 4 5
comments
print report bad tab
guest
You may want to rate the tab now too:
select rating
Wanna post a correction for this tab? Suggest correction