Oops, an error
Loading. Please wait.

Kings Of The Carnival Creation bass

version 2
version 2

Whole song

2,232 views 1 this week
2 commentsread comments
1 2 3 4 5
3 more votes to show rating
add to favorites
×
Save as Personal and add changes to this tab that will be seen only by you. Learn more ›
×
You can save this tab as Personal to edit and correct it or add notes. All changes will be seen only by you. Learn more »
launch autoscroll
font size
0
reset
guitar tuner
backing track
0:00
0:00
edit
Autoscroll
slow
fast
+/-
esc
set tempo
stop
Band: Dimmu Borgir
Album: Puritanical Euphoric Misanthropia
Song: Kings of the Carnival Creation

OK, so, let me clear something up about Dimmu Borgir. Vortex uses a 5 string bass, and 
uses it for certain chords that the guitarists may do. For example, say if the guitars 
going

[-----]
[-----]
[-----]
[4-444]
[2-222]
[2-222]

Then the bass would be going

[-----]
[-----]
[-----]
[-----]
[0-000]

He often uses standard tuning, but I can hear that he goes lower than B, so he must be 
drop D. Feel free to PM me with any questions or comments.

First riff (begin at :29)

[----]
[----]
[----]
[----]
[5457]

Main riff
[-------------------------------------------------]
[-------------------------------------------------]
[-------------------------------------------------]
[-------------------------------------------------]
[2--222--222-222--221-124-5--555--555-555--554-457]

Next part
[---------------------------------------------------------------------]
[---------------------------------------------------------------------]
[222222222222-1414141414141412\-2455555555555555-171717171717171515313]
[---------------------------------------------------------------------]
[---------------------------------------------------------------------]

[-------------------------------------------------------------]
[-------------------------------------------------------------]
[222222222222-1414141412121010--5555555555555-1717171717161719]
[-------------------------------------------------------------]
[-------------------------------------------------------------]

Repeat main riff
[-------------------------------------------------]
[-------------------------------------------------]
[-------------------------------------------------]
[-------------------------------------------------]
[2--222--222-222--221-124-5--555--555-555--554-457]

Repeat these riffs
[---------------------------------------------------------------------]
[---------------------------------------------------------------------]
[222222222222-1414141414141412\-2455555555555555-171717171717171515313]
[---------------------------------------------------------------------]
[---------------------------------------------------------------------]

[-------------------------------------------------------------]
[-------------------------------------------------------------]
[222222222222-1414141412121010--5555555555555-1717171717161719]
[-------------------------------------------------------------]
[-------------------------------------------------------------]

Next part (with the stigma feasting upon your flesh... )
[--------------]
[3-------------]
[---3---2-2-2h3]
[--------------]
[--------------]

Play the above riff once, and then this riff as many times as needed (those are ones)
[--------------------]
[--3-----------------]
[-3-3--3----2--2--2h3]
[1----1--1-1-11-11---]
[--------------------]

Breakdown with first solo (let notes ring out)
[-----------------]
[-----------------]
[2----5----9----12]
[-----------------]
[-----------------]

Back to main riff
[-------------------------------------------------]
[-------------------------------------------------]
[-------------------------------------------------]
[-------------------------------------------------]
[2--222--222-222--221-124-5--555--555-555--554-457]

Then repeat these riffs
[---------------------------------------------------------------------]
[---------------------------------------------------------------------]
[222222222222-1414141414141412\-2455555555555555-171717171717171515313]
[---------------------------------------------------------------------]
[---------------------------------------------------------------------]

[-------------------------------------------------------------]
[-------------------------------------------------------------]
[222222222222-1414141412121010--5555555555555-1717171717161719]
[-------------------------------------------------------------]
[-------------------------------------------------------------]

Breakdown (^ means bend)
[--------------------------------------------------------]
[----------------------66-866----------------------66-866]
[4---4---464---------66------4---4---464---------66------]
[------------6--6--66--------------------6--6--66--------]
[--------------------------------------------------------]

[------------------------99------------------------------]
[----------------------99--99----------------------------]
[9---9---9119-7---7--77-------9---9---9119-7---7-7^-6^-5^]
[--------------------------------------------------------]
[--------------------------------------------------------]

Singing part with Vortex
[--------------------------------------------------]
[--------------6-------6----------------6-------6--]
[-------------6------6---6-------------6------6---6]
[----------6------66----------------6------66------]
[4--44--44----------------4--44--44----------------]

[------11-------11-11/13-11-9-----9-----------]
[----11-------11-----------------9------------]
[/9--------99-----------------7-------77-77-77]
[---------------------------------------------]
[---------------------------------------------]

[------11-------11-11/13-11-9-----9-----------]
[----11-------11-----------------9------------]
[/9--------99-----------------7-------7^-6^-5^]
[---------------------------------------------]
[---------------------------------------------]

Enter guitar solo
[--------------------------------------------------]
[--------------6-------6----------------6-------6--]
[-------------6------6---6-------------6------6---6]
[----------6------66----------------6------66------]
[4--44--44----------------4--44--44----------------]

[------11-------11-11/13-11-9-----9-----------]
[----11-------11-----------------9------------]
[/9--------99-----------------7-------77-77-77]
[---------------------------------------------]
[---------------------------------------------]

[------11-------13-11-9-8---------9-----------]
[----11-------11-----------------9------------]
[/9--------99-----------------7-------7^-6^-5^]
[---------------------------------------------]
[---------------------------------------------]

Next part
[--------------]
[4-------------]
[---4---3-3-3h4]
[--------------]
[--------------]

Play the above riff once, and then this riff as many times as needed
[--------------------]
[--4-----------------]
[-4-4--4----3--3--3h4]
[2----2--2-2-22-22---]
[--------------------]

Then this part
[-----------------]
[-----------------]
[2----5----9----12]
[-----------------]
[-----------------]

Then the pass follows the lead guitar here (root notes are being tremelo picked 
notes. or, tremelo fingered... lol)
[----4----6----7-----7----9----11-----11---13---14----7-6h7p6-4]
[-4----4----4-----7----7----7------11---11---11----------------]
[--------------------------------------------------------------]
[--------------------------------------------------------------]
[--------------------------------------------------------------]

The next part plays this once to begin with (those are 11's)
[-----------------------------------------]
[-----------------------------------------]
[9999999999999999-111111111111111111111111]
[-----------------------------------------]
[-----------------------------------------]

After playing that once, play this repeatedly
[-------------------------------------------------------------]
[-------------------------------------------------------------]
[5555555555555555-9999999999999999999999-111111111111111111111]
[-------------------------------------------------------------]
[-------------------------------------------------------------]

End song with this notes
[---]
[---]
[17\]
[---]
[---]

Enjoy.

            
            
Suggest correction
Creating personal tab
Creating personal tab
You can edit any tab online and save it as your Personal.

You can edit, replace or remove any tab part or add personal notes – all changes will be seen only by you.

Personal tabs can be accessed anytime from any device, even offline.
Learn more »
Give kudos to tab author, rate the tab!
1 2 3 4 5
comments
print report bad tab
2 comments total.
0 reply
Mudvayne_4_Life 191 Sep 06, 2007 11:52 AM

I'm making a couple corrections myself here. During the part that goes

[--------------------]
[--3-----------------]
[-3-3--3----2--2--2h3]
[1----1--1-1-11-11---]
[--------------------]

The 1's on the E string should be 3's. (I forgot it's in drop D.) Also, the part that goes

[-------------------------------------------------------------]
[-------------------------------------------------------------]
[5555555555555555-9999999999999999999999-111111111111111111111]
[-------------------------------------------------------------]
[-------------------------------------------------------------]

the 9's should be 10's, and the 11's should be 12's. I was in a bit of a rush at the time. Sorry folks. ;)

0 reply
madderdaddy2 20 Jan 21, 2009 11:17 AM

it DOES go to a low Bb... possibly the B is dropped to an A?

guest
You may want to rate the tab now too:
select rating
Wanna post a correction for this tab? Suggest correction