Oops, an error
Loading. Please wait.

Kings Of The Carnival Creation tab

version 2
version 2

Whole song

1,973 views 1 this week
no commentswrite comment
1 2 3 4 5
3 more votes to show rating
add to favorites
×
Save as Personal and add changes to this tab that will be seen only by you. Learn more ›
×
You can save this tab as Personal to edit and correct it or add notes. All changes will be seen only by you. Learn more »
launch autoscroll
font size
0
reset
how to read this tab
guitar tuner
backing track
0:00
0:00
edit
Autoscroll
slow
fast
+/-
esc
set tempo
stop
Author
Difficulty
Dimmu Borgir - Kings of the Carnival Creation
pretty hard song to play yet fun

Tuning is Standard {EADGBe}
But still i use Drop C


First the Intro not for Guitar, then...


Intro//Verse: Both Guitars
|--------------|-------------------------------------------------------|
|--------------|-------------------------------------------------------|
|--------------|-------------------------------------------------------|
|--------------|-------------------------------------------------------|
|--5-5-5-4-5-7-|--2---2-2-2-2---2-2-2---2-2-2-2-2---2-2-2-2-2-2-2-2-4--|
|--5-5-5-4-5-7-|--2---2-2-2-2---2-2-2---2-2-2-2-2---2-2-2-2-2-2-2-2-4--|
|                                                                      |
|                                                                      |   X2
|----------------------------------------------------------------------|
|----------------------------------------------------------------------|
|----------------------------------------------------------------------|
|----------------------------------------------------------------------|
|--5---5-5-5-5---5-5-5---5-5-5-5-5---5-5-5-4-5-5-5-7-------------------|
|--5---5-5-5-5---5-5-5---5-5-5-5-5---5-5-5-4-5-5-5-7-------------------|

|-------------------------------------------------------------|
|-------------------------------------------------------------|
|-------------------------------------------------------------|
|-------------------------------------------------------------|
|--2-2-2-2-2-2-2-2-2---2-2-2---2-2-2-2-2---2-2-2-2-2-2-2-2-4--|
|--2-2-2-2-2-2-2-2-2---2-2-2---2-2-2-2-2---2-2-2-2-2-2-2-2-4--|
|                                                             |
|                                                             |   X2
|-------------------------------------------------------------|
|-------------------------------------------------------------|
|-------------------------------------------------------------|
|-------------------------------------------------------------|
|--5-5-5-5-5-5-5-5-5---5-5-5---5-5-5-5-5---5-5-5-4-5-5-5-7----|
|--5-5-5-5-5-5-5-5-5---5-5-5---5-5-5-5-5---5-5-5-4-5-5-5-7----|


|----------------------------------------------------------|
|------------------2"------3"------------------2"------3"--|
|---------4"---------------------------4"------------------|
|------4"----4"--------4"-----------4"----4"-------4"------|
|--2"---------------------------2"-------------------------|
|----------------------------------------------------------|
|                                                          |
|                                                          |  X2
|----------------------------------------------------------|
|------------------5"------6"------------------5"------6"--|
|---------7"---------------------------7"------------------|
|------7"----7"--------7"-----------7"----7"-------7"------|
|--5"----------------------------5"------------------------|
|----------------------------------------------------------|


|-------------------------------------------------------------|
|-------------------------------------------------------------|
|-------------------------------------------------------------|
|-------------------------------------------------------------|
|--2-2-2-2-2-2-2-2-2---2-2-2---2-2-2-2-2---2-2-2-2-2-2-2-2-4--|
|--2-2-2-2-2-2-2-2-2---2-2-2---2-2-2-2-2---2-2-2-2-2-2-2-2-4--|
|                                                             |
|                                                             |   X2
|-------------------------------------------------------------|
|-------------------------------------------------------------|
|-------------------------------------------------------------|
|-------------------------------------------------------------|
|--5-5-5-5-5-5-5-5-5---5-5-5---5-5-5-5-5---5-5-5-4-5-5-5-7----|
|--5-5-5-5-5-5-5-5-5---5-5-5---5-5-5-5-5---5-5-5-4-5-5-5-7----|


|----------------------------------------------------------|
|------------------2"------3"------------------2"------3"--|
|---------4"---------------------------4"------------------|
|------4"----4"--------4"-----------4"----4"-------4"------|
|--2"---------------------------2"-------------------------|
|----------------------------------------------------------|
|                                                          |
|                                                          |  X2
|----------------------------------------------------------|
|------------------5"------6"------------------5"------6"--|
|---------7"---------------------------7"------------------|
|------7"----7"--------7"-----------7"----7"-------7"------|
|--5"----------------------------5"------------------------|
|----------------------------------------------------------|


Mustis's Part Arranged for Guitar
|------------------------------------|------------------------------------|------------------------------------|
|------6-----------------------------|------6-----------------------------|------6-----------------------------|
|----5--------5-----4-----4-----4-5--|----5--------5-----4-----4-----4-5--|----5--------5-----4-----4-----4-5--|
|--3------3-3---3-3---3-3---3-3------|--3------3-3---3-3---3-3---3-3------|--3------3-3---3-3---3-3---3-3------|
|------------------------------------|------------------------------------|------------------------------------|
|------------------------------------|------------------------------------|------------------------------------|


Pre-Chorus Riff

Then The Guitars Come in{both guitars at first}
|-----------------------------------------|
|-----------------------------------------|
|-----------------------------------------|
|--x-x-3-----5----4------4--(4)--4--4--5--|
|--x-x-3-----5----4------4--(4)--4--4--5--|
|--x-x-1-----3----2------2--(2)--2--2--3--|


Then Seperate guitars

Silenoz
|----------------|-------------------|----------------|-------------------|
|----------------|-------------------|----------------|-------------------|
|------------5---|--4---4-(4)--------|------------5---|--4---4-(4)--------|
|--3---3-----5---|--4---4-(4)-4-4-5--|--3---3-----5---|--4---4-(4)-4-4-5--|
|--3---3-----3---|--2---2-(2)-4-4-5--|--3---3-----3---|--2---2-(2)-4-4-5--|
|--1---1---------|------------2-2-3--|--1---1---------|------------2-2-3--|
|                                                                         |
|Galder                                                                   |
|----------------|-------------------|----------------|-------------------|
|----------------|-------------------|----------------|-------------------|
|----------------|-------------------|----------------|-------------------|
|-----3----------|-------------------|------3---------|-------------------|
|-----------3----|--2---2-(2)-2-2-3--|------------3---|--2---2-(2)-2-2-3--|
|--1-------------|-------------------|--1-------------|-------------------|


Chorus:Both Guitars
|-------------------------------------------------------|
|-------------------------------------------------------|
|-------------------------------------------------------|
|----------3-------------------4---------4---------4-5--|
|--------------------3---------2---------2---------2-3--|
|--1-1-1-1---1-1-1-1---1-1-1-1---1-1-1-1---1-1-1-1------|

|-------------------------------------------------------|
|-------------------------------------------------------|
|-------------------------------------------------------|
|----------3-------------------4-----4-----4-----4-5----|
|--------------------3---------2-----2-----2-----2-3----|
|--1-1-1-1---1-1-1-1---1-1-1-1---1-1---1-1---1-1--------|


Post-Chorus Riff:Both Guitars
|-------------|--------------|------------|-------------|
|-------------|--------------|------------|-------------|
|-------------|--------------|------------|-------------|
|---9---------|---7----------|---4--------|---7---------|
|---9---------|---7----------|---4--------|---7---------|
|---7---------|---5----------|---2--------|---5---------|


Seperate Guitars
Galder:
|------------------------------------------------------4"---5"---(5")-------------|
|------------2"---3"---(3")---3"---5"---7"---(7")---7"---------------------3"-----|
|--4"----4"------------------------------------------------------------2"------4"-|
|---------------------------------------------------------------------------------|
|---------------------------------------------------------------------------------|
|---------------------------------------------------------------------------------|
|                                                                                 |
|Silenoz                                                                          |  X4
|---------------------------------------------------------------------------------|
|---------------------------------------------------------------------------------|
|---------------------------------------------------------------------------------|
|--4------------------------------------------------------------------------------|
|--2--------------------------5---------------------4------------------0"--5"--4"-|
|-----------------------------5---------------------2-------------2"--------------|


On the fourth time instead of play(2",3",4") you play:
Silenoz:        {all four of the riffs below are played twice straight through}
|------------------------|------------------------------------------------------|
|------------------------|------------------------------------------------------|
|---14"--2"--------------|------------------------------------------------------|
|------------------------|------------------------------------------------------|
|------------5-5-5-4-5-7-|--2---2-2-2-2---2-2-2-2---2-2-2-2---2-2-2-2--2-2-2-2--|
|------------5-5-5-4-5-7-|--2---2-2-2-2---2-2-2-2---2-2-2-2---2-2-2-2--2-2-2-2--|

Galder
|------------------------|-------------------------------------------------------------------------------------------------|
|------------------------|-7-3-0-7-3-0-8-3-0-8-3-0-7-3-0-7-3-0-8-3-0-8-3-0-7-3-0-7-3-0-8-3-0-8-3-0-7-3-0-7-3-0-8-3-0-8-3---|
|------------------------|-------------------------------------------------------------------------------------------------|
|------------------------|-------------------------------------------------------------------------------------------------|
|--------0"--------------|-------------------------------------------------------------------------------------------------|
|----2"------------------|-------------------------------------------------------------------------------------------------|

Silenoz
|-----------------------------------------------------|
|-----------------------------------------------------|
|-----------------------------------------------------|
|-----------------------------------------------------|
|--5---5-5-5-5---5-5-5-5---5-5-5-5---5-5-5-4---5---7--|
|--5---5-5-5-5---5-5-5-5---5-5-5-5---5-5-5-4---5---7--|

|------------------------------------------------------------------------------------------------------------------|
|-10-6-3-10-6-3-11-6-3-11-6-3-10-6-3-10-6-3-11-6-3-11-6-3-10-6-3-10-6-3-11-6-3-11-6-3-10-6-3-10-6-3-11-6-3-11-6-3--|
|------------------------------------------------------------------------------------------------------------------|
|------------------------------------------------------------------------------------------------------------------|
|------------------------------------------------------------------------------------------------------------------|
|------------------------------------------------------------------------------------------------------------------|


Verse Riff:Both Guitars
|----------------------------------------------------------|-------------------------------------------------------|
|----------------------------------------------------------|-------------------------------------------------------|
|----------------------------------------------------------|-------------------------------------------------------|
|----------------------------------------------------------|-------------------------------------------------------|

  X2
|--2-2-2-2-2-2-2-2-2---2-2-2---2-2-2-2-2---2-2-2-2-2-2-2-2-|--5-5-5-5-5-5-5-5-5---5-5-5---5-5-5-5-5---5-5-5-4-5-7--|


Both Guitars
|----------------------------------------------------------|
|------------------2"------3"------------------2"------3"--|
|---------4"---------------------------4"------------------|
|------4"----4"--------4"-----------4"----4"-------4"------|
|--2"---------------------------2"-------------------------|
|----------------------------------------------------------|
|                                                          |
|                                                          |  X2
|----------------------------------------------------------|
|------------------5"------6"------------------5"------6"--|
|---------7"---------------------------7"------------------|
|------7"----7"--------7"-----------7"----7"-------7"------|
|--5"----------------------------5"------------------------|
|----------------------------------------------------------|


Synth Prelude:
|----------------------------------------------------------------------------------------|
|----------------------------------------------------------------------------------------|

 X2
|------------------------------------------------------------------------------6"-4"-----|
|--4"----------4"-6"-7"---4"-----------4"-6"-7"----------------------------6"--------7"--|
|-------------------------------------------------4"--------------4"---7"----------------|

|----------------------------------------------------------------------------------------|
|----------------------------------------------------------------------------------------|

 X2
|----------------------------------------------------------------------------------------|
|----------------------------------------------------------------------------------------|
|--2"---------------------2"----------------------0"--------------0"---------------------|


Vortex's Verse:
|----------------|----------------------|-----------------------|
|----------------|----------------------|-----------------------|
|----------------|----------------------|-----------------------|
|----------------|-----6--------6---6---|-----6---------6---6---|  X2
|------7---6---5-|-----4--------4---4---|-----6---------6---6---|
|---0--7---6---5-|-----4--------4---4---|-----4---------4---4---|

|----------------|--------------------------------------------------------------------|
|----------------|--------------------------------------------------------------------|
|----------------|--------------------------------------------------------------------|
|--4-----4---4---|-2-----2-2-2-2---2-2-2-2---2-2-2-2---4-----4---4-----2-----2--------|
|--4-----4---4---|-2-----2-2-2-2---2-2-2-2---2-2-2-2---4-----4---4-----2-----2-7-6-5--|
|--2-----2---2---|-0-----0-0-0-0---0-0-0-0---0-0-0-0---2-----2---2-----0-----0-7-6-5--|


Now it is Synth and only Silenzo plays
|---------------------------|-------------------------|
|---------------------------|-------------------------|
|---------------------------|-------------------------|
|---6--------6---6----------|---6--------6---6--------|
|---4--------4---4----------|---6--------6---6--------|
|---4--------4---4----------|---4--------4---4--------|
|                                                     |
|---------------------------|-------------------------|
|---------------------------|-------------------------|
|---------------------------|-------------------------|
|---6--------6---6----------|---6--------6---6--------|
|---4--------4---4----------|---6--------6---6--------|
|---4--------4---4----------|---4--------4---4--------|

|---------------------------|--------------------------------------|
|---------------------------|--------------------------------------|
|---------------------------|--------------------------------------|
|---4--------4---4----------|--2------2-2-2-2---2-2-2-2---2-2-2-2--|
|---4--------4---4----------|--2------2-2-2-2---2-2-2-2---2-2-2-2--|
|---2--------2---2----------|--0------0-0-0-0---0-0-0-0---0-0-0-0--|
|                                                                  |
|---------------------------|--------------------------------------|
|---------------------------|--------------------------------------|
|---------------------------|--------------------------------------|
|---4--------4---4----------|---2--------2-------------------------|
|---4--------4---4----------|---2--------2---7---6---5-------------|
|---2--------2---2----------|---0--------0---7---6---5-------------|


At the End of the Sytnh when Silenzo plays (2,7,6,5} Galder Plays:
|--------------------------------------------------|
|--------------------------------------------------|
|----------------6-7-------------6-7-9-------6-7-9-|
|----------6-7-9-------6-7---6-7---------6-7-------|
|----6-7-9-----------9-----9-----------9-----------|
|--9-----------------------------------------------|


Guitars lead out to interlude with:
|-----|
|-----|
|-11~-|
|-----|
|-----|
|-----|

Again Mustis's Part
|---------------------------------------------------------------------------------------------------------|
|-------7---------------------------------7---------------------------------7-----------------------------|
|-----6-------6-----5-----5-----5-6-----6-------6-----5-----5-----5-6-----6--------6-----5-----5-----5-6--|
|---4-----4-4---4-4---4-4---4-4-------4-----4-4---4-4---4-4---4-4-------4------4-4---4-4---4-4---4-4------|
|---------------------------------------------------------------------------------------------------------|
|---------------------------------------------------------------------------------------------------------|


Pre-Chorus
Silenoz
|---------------------------------------------|
|---------------------------------------------|
|--------6-----6--6---------------------------|
|--4--4--4-----4--4----5----5---(5)--5--5--6--|
|--4--4--------4--4----3----3---(3)--3--3--6--|
|--2--2----------------3----3---(3)--3--3--4--|
|                                             |
|Galder                                       |
|---------------------------------------------|
|---------------------------------------------|
|---------------------------------------------|
|--4--4--4-----6--6----5----5---(5)--5--5--6--|
|--4--4--4-----4--4----3----3---(3)--3--3--4--|
|--2--2--2-----4--4----3----3---(3)--3--3--4--|


Chorus:Both Guitars
|-------------------------------------------------------|
|-------------------------------------------------------|
|-------------------------------------------------------|
|----------4-------------------5---------5---------5-6--|
|--------------------4---------3---------3---------3-4--|
|--2-2-2-2---2-2-2-2---2-2-2-2---2-2-2-2---2-2-2-2------|

|-------------------------------------------------------|
|-------------------------------------------------------|
|-------------------------------------------------------|
|----------4-------------------5-----5-----5-----5-6----|
|--------------------4---------3-----3-----3-----3-4----|
|--2-2-2-2---2-2-2-2---2-2-2-2---2-2---2-2---2-2--------|


Post-Chorus Riff:Both Guitars
|-------------|--------------|------------|-------------|
|-------------|--------------|------------|-------------|
|-------------|--------------|------------|-------------|
|---9---------|---7----------|---4--------|---7---------|
|---9---------|---7----------|---4--------|---7---------|
|---7---------|---5----------|---2--------|---5---------|


Seperate Guitars
Galder:
|------------------------------------------------------4"---5"---(5")-------------|
|------------2"---3"---(3")---3"---5"---7"---(7")---7"---------------------3"-----|
|--4"----4"------------------------------------------------------------2"------4"-|
|---------------------------------------------------------------------------------|
|---------------------------------------------------------------------------------|
|---------------------------------------------------------------------------------|
|                                                                                 |
|Silenoz                                                                          |  X4
|---------------------------------------------------------------------------------|
|---------------------------------------------------------------------------------|
|---------------------------------------------------------------------------------|
|--4------------------------------------------------------------------------------|
|--2--------------------------5---------------------4------------------0"--5"--4"-|
|-----------------------------5---------------------2-------------2"--------------|

Left are the kings....

Seperate Guitars
Galder
|----------------|--------------------------------------------|
|----------------|--------------------------------------------|
|--14"-2"-7"-4"--|--------------------------------------------|
|----------------|--7------------------------------------(7)--|
|----------------|--7------------------------------------(7)--|
|----------------|--5------------------------------------(5)--|
|                                                             |
|Silenzo                                                      |
|----------------|--------------------------------------------|
|----------------|--------------------------------------------|
|----------------|--------------------------------------------|
|----------------|--7------------------------------------(7)--|
|---------5"-4"--|--5------------------------------------(5)--|
|---2"-5"--------|--5------------------------------------(5)--|


Galder only
|----------------------------------------5"------|
|--------------------5"--------------------------|
|-----7"--------------------6"-------------------|
|----------7"--------------------7"--------------|
|---------------5"------5"------------5"------5"-|
|------------------------------------------------|

|--6"--------------------------------------------|
|-------8"-------------------------------5"------|
|------------7"----------------------6"-------6"-|
|------------------5"-----------5"---------------|
|-----------------------5"-----------------------|
|----------------------------5"------------------|


Both Guitars
|------------------------------------------------|
|--------------------5"------------------6"------|
|-----7"--------------------6"-------------------|
|----------7"--------------------7"--------------|
|---------------5"------5"------------5"------5"-|
|------------------------------------------------|
|                                                |  X2
|--6"--------------------------------------------|
|-------8"-------------------------------5"------|
|------------7"----------------------6"-------6"-|
|------------------5"-----------5"---------------|
|-----------------------5"-----------------------|
|----------------------------5"------------------|


Outro:
|---------|
|---7\\\--|
|---------|
|---------|
|---------|
|---------|

            
            
Suggest correction
Creating personal tab
Creating personal tab
You can edit any tab online and save it as your Personal.

You can edit, replace or remove any tab part or add personal notes – all changes will be seen only by you.

Personal tabs can be accessed anytime from any device, even offline.
Learn more »
Give kudos to tab author, rate the tab!
1 2 3 4 5
comments
print report bad tab
guest
You may want to rate the tab now too:
select rating
Wanna post a correction for this tab? Suggest correction