Oops, an error
Loading. Please wait.

Moonchild Domain tab

version 1
version 1

Whole song

Interactive

993 views 1 this week
4 commentsread comments
1 2 3 4 5
1 last vote to show rating
add to favorites
×
Save as Personal and add changes to this tab that will be seen only by you. Learn more ›
×
You can save this tab as Personal to edit and correct it or add notes. All changes will be seen only by you. Learn more »
launch autoscroll
font size
0
reset
how to read this tab
guitar tuner
edit
Autoscroll
slow
fast
+/-
esc
set tempo
stop
==========================================================================
ARTIST: Dimmu Borgir
SONG: Moonchild Domain 
TRANSCRIBED BY: Thomas Abraham

NOTE: This song was transcribed in normal tuning.



RIFF A
|--------------------------------------|
|--------------------------------------|
|--------------------------------------| REPEAT 8x  
|-2-------------3\4----------------3\4-|
|-0--5--4--4\5--1\2--6--5--4--4\5--1\2-|
|----3--2--2\3-------4--3--2--2\3------|



RIFF B
|----------------------------|
|----------------------------|
|----------2-3-5-5-3-2-------| PLAY ONCE
|-2--2-3-5-------------5-3-2-|
|-0--------------------------|
|----------------------------|


RIFF C                                                        REPEAT 4x
|----------------------------------------------------------------------|
|----------------------------------------------------------------------|
|--------------------------------------------------5-3-2---------------|
|--------------------------------------------------------5-3-2---2-3-5-|
|-33333333--------33333333--------33333333---------------------5-------|
|---------33333333--------22222222--------33333333---------------------|

RIFF D
|-------------------|
|-------------------|
|-2-3-5-5-3-2-------| PLAY ONCE
|-------------5-3-2-|
|-------------------|
|-------------------|

RIFF E
|---------|            |---------|            |---------|
|---------|            |---------|            |---------|
|---------| REPEAT 4x  |---------| REPEAT 4x  |---------| REPEAT 4x
|---------|            |---------|            |---------|
|-3-3-3-4-|            |-2-2-2-3-|            |-3-3-3-4-|
|-1-1-1-2-|            |-0-0-0-1-|            |-1-1-1-2-|



|---------|           |---------------| 
|---------| REPEAT 2x |---------------| PLAY ONCE
|---------|           |-2-3-5-5-3-2---| 
|-6-6-6-7-|           |-------------5-|
|-4-4-4-5-|           |---------------|           


PLAY RIFF E AGAIN

NOW PLAY RIFF C 4x EXCEPT DO NOT PLAY THE THREE NOTES (-2-3-5-) ON LAST REPEAT

PLAY RIFF A 4x


RIFF F
|------------------------|
|------------------------|
|----5-3-2---------------| PLAY ONCE
|-2--------5-3-2---2-3-5-|
|-0--------------5-------|
|------------------------|


PLAY RIFF E 2x

RIFF G 2x
(NOTE: THIS RIFF IS VERY SIMILAR TO RIFF E, BUT I AM NOT SURE HOW DIMMU BORGIR 
PLAYS IT TO GET THE SOUND THAT I HEAR IN THE SONG. IT IS PROBABLY INCORRECT IN 
TERMS OF HOW THE NOTES ARE PLAYED, BUT ACCURATE IN TERMS OF WHERE THE NOTES ARE 
PLAYED ON THE STRINGS.)

|---------|            |---------|            |---------|
|---------|            |---------|            |---------|
|---------| REPEAT 4x  |---------| REPEAT 4x  |---------| REPEAT 4x
|---------|            |---------|            |---------|
|---------|            |---------|            |---------|
|-1-1-1-2-|            |-0-0-0-1-|            |-1-1-1-2-|


|---------|           |---------------| 
|---------| REPEAT 2x |---------------| PLAY ONCE
|---------|           |-2-3-5-5-3-2---| 
|---------|           |-------------5-|
|-4-4-4-5-|           |---------------|           


SOLO-PART 1: (**=whammy-bar effect)
(NOTE: PLAY SOLO-PART 1 WITH RIFF E)
|---------------------------------------------------------------|
|---------------------------------------------------------------|
|--------10--------10-11-9-8---------------8-9-11--------10-8-7-|
|-7-8-10----7-8-10-----------11-9-8-8-9-11--------7-8-10--------|
|---------------------------------------------------------------|
|---------------------------------------------------------------|

|----------------------------------------------------------------------|
|----------------------------------------------------------------------|
|--------7-8-10-9-7-6-------------6-7-9--------10-9--------------------|
|-7-8-10--------------9-7-6-6-7-9-------7-9-10------9-10-7-9-10-12-11**|
|----------------------------------------------------------------------|
|----------------------------------------------------------------------|


|-------------------------------------------------------|
|----------15-13-12----15-13-12----------15-13-12----15-|
|-12-13-15----------12----------12-13-15----------12----|
|-------------------------------------------------------|
|-------------------------------------------------------|
|-------------------------------------------------------|

|-------------------------------------------------|
|----------14-12-11----14----------14-12-11----14-|
|-11-12-14----------11----11-12-14----------11----|
|-------------------------------------------------|
|-------------------------------------------------|
|-------------------------------------------------|

|------------------------------------------------------------------|
|---------15-13-12--------15-13-12--------15-13-12--------15-13-12-|
|-12-13-15--------12-13-15--------12-13-15--------12-13-15---------|
|------------------------------------------------------------------|
|------------------------------------------------------------------|
|------------------------------------------------------------------|

|-----------------------------------------------|
|-----------------------------------------------|
|---------12-10-9---------12-10-9-12-10-9-------|
|-9-10-12---------9-10-12-----------------12-11-|
|-----------------------------------------------|
|-----------------------------------------------|

SOLO-PART 2:
(NOTE: PLAY SOLO-PART 2 WITH RIFF G. I CANNOT FIGURE OUT THE SECOND HALF OF THE SOLO, 
ONLY BITS AND PIECES, SO I LEFT SOME LINES YOU COULD WRITE IN IF YOU CAN FIGURE IT 
OUT. GOOD LUCK.)

|------------------------------------------------------------------|
|------------------------------------------------------------------|
|------------------------------------------------------------------|
|------------------------------------------------------------------|
|------------------------------------------------------------------|
|------------------------------------------------------------------|

|------------------------------------------------------------------|
|------------------------------------------------------------------|
|------------------------------------------------------------------|
|------------------------------------------------------------------|
|------------------------------------------------------------------|
|------------------------------------------------------------------|



RIFF H
|------------------------------------------------|
|------------------------------------------------|
|------------------------------------------------| REPEAT 4x
|-33333333---------3-2-3--44444444---------4-3-4-|
|---------33333333----------------44444444-------|
|------------------------------------------------|

ON THE FOURTH REPEAT OF RIFF H PLAY:

|------------------------------------------------|
|------------------------------------------------|
|------------------------5-3-2-------------5-3-2-| 
|-33333333---------3-2-3-------5-3-2-2-3-5-------|
|---------33333333-------------------------------|
|------------------------------------------------|

REPEAT RIFF H THREE MORE TIMES.


RIFF I
|--------|
|--------|
|--------|
|-3--2-2-|
|-1--0-0-|
|--------|

Any questions, comments, concerns or corrections, e-mail me: GRINDFANATIC@ROCKETMAIL.COM
Suggest correction
Creating personal tab
Creating personal tab
You can edit any tab online and save it as your Personal.

You can edit, replace or remove any tab part or add personal notes – all changes will be seen only by you.

Personal tabs can be accessed anytime from any device, even offline.
Learn more »
Give kudos to tab author, rate the tab!
1 2 3 4 5
comments
print report bad tab
4 comments total. Showing first comments.
0 reply
Angel Of Sin 144 Aug 24, 2007 10:14 PM

In The intro |-2-------------3\4----------------3\4-|
|-0--5--4--4\5--1\2--6--5--4--4\5--1\2-|
|----3--2--2\3-------4--3--2--2\3------|

shouldnt it be |---------------3\4----------------3\4-|
|-2--5--4--4\5--1\2--6--5--4--4\5--1\2-|
|-0--3--2--2\3-------4--3--2--2\3------|

0 reply
Angel Of Sin 144 Aug 24, 2007 10:14 PM

In The intro |-2-------------3\4----------------3\4-|
|-0--5--4--4\5--1\2--6--5--4--4\5--1\2-|
|----3--2--2\3-------4--3--2--2\3------|

shouldnt it be |---------------3\4----------------3\4-|
|-2--5--4--4\5--1\2--6--5--4--4\5--1\2-|
|-0--3--2--2\3-------4--3--2--2\3------|

0 reply
Angel Of Sin 144 Aug 24, 2007 10:16 PM

oh crap i double posted and the thing didnt seem to turn out well.

guest
Wanna post a correction for this tab? Suggest correction