Oops, an error
Loading. Please wait.

Progenies Of The Great Apocalypse bass

version 3
version 3

Whole song

Interactive

1,500 views 3 this week
no commentswrite comment
1 2 3 4 5
3 more votes to show rating
add to favorites
×
Save as Personal and add changes to this tab that will be seen only by you. Learn more ›
×
You can save this tab as Personal to edit and correct it or add notes. All changes will be seen only by you. Learn more »
launch autoscroll
font size
0
reset
guitar tuner
backing track
0:00
0:00
edit
Autoscroll
slow
fast
+/-
esc
set tempo
stop
Author
--------------------------------------------------------------------------------
                   PROGENIES OF THE GREAT APOCALYPSE - Dimmu Borgir
-------------------------------------------------------------------------------

Tabbed by : LsCSmokey
Contact: deadsybassman@yahoo.com
Played on: 5-string


Foreword: I tabbed this once for Mxtabs.net before it got shut down. I believe this tab 
99.9% correct.
there may be a couple notes I didn't hear, but I think I did a pretty good job.
Listen to the song for correct timing and note placement. Thanks

Intro
G:---------------------------------------|
D:---------------------------------------|
A:---------------------------------------|
E:---------------------------------------|
B:---4444---4444--------4444---4444--11--|


Verse riff: A
G:-----------------------------------------|
D:-----------------------------------------|
A:-----------------------7h8--8p7--7p6-6p5-|
E:--222222---------------------------------|
B:-----------33333333----------------------|

Verse riff: B    Alternate between these two
G:------------------------------------------|
D:------------------------------------------|
A:------------------------3h4--4p3--3p2-1p0-|
E:--222222----------------------------------|
B:-----------33333333-----------------------|

intro
G:---------------------------------------|
D:---------------------------------------|
A:---------------------------------------|
E:---------------------------------------|
B:---4444---4444--------4444---4444--11--|


Verse riff: A
G:-----------------------------------------|
D:-----------------------------------------|
A:-----------------------7h8--8p7--7p6-6p5-|
E:--222222---------------------------------|
B:-----------33333333----------------------|

Verse riff: B	Alternate between theses two
G:------------------------------------------|
D:------------------------------------------|
A:------------------------3h4--4p3--3p2-1p0-|
E:--222222----------------------------------|
B:-----------33333333-----------------------|

During the upcoming interlude Alternate between part 1 and part2
     and play each part twice
Part 1
Part 2
Part 1
Part 2


Orchestral Interlude with Clean Vocals Part 1
G:----------------------------------------|
D:--------------------------9--------9----|
A:-----4~-----------------9---9-----9-----|
E:--------------24545---7-------7-7---7/9-|
B:--2~-----2~-----------------------------|

Orchestral Interlude with Clean Vocals Part 2
G:--------------------------------------------|
D:--------------------------9-------55-5h7p5--|
A:-----4~-----------------9---9---5-----------|
E:--------------24545---7-------7-------------|
B:--2~----2~----------------------------------|


G:-----------------------------------|
D:-----------------------------------|
A:-----------------------------------|
E:-----------------------------------|
B:--2222222222222---00000000000000---|

G:-------------------------------------|
D:-------------------------------------|
A:-------------------------------------|
E:-------------------------------------|
B:--2222222222222---777777---88888888--|

G:-----------------------------------------------------|
D:-----------------------------------------------------|
A:-----------------------------------------------------|
E:-----------------------------------------------------|
B:--222-22-2-222-22-2----000-00-0-000-00-0-------------|

Organ Solo
G:---------------------------------|
D:---------------------------------|
A:---------------------------------|
E:---------------------------------|
B:--2~-------0~--------------------|

G:---------------------------------|
D:---------------------------------|
A:---------------------------------|
E:---------------------------------|
B:----22222222222--000000000000----|

Outro
G:---------------------------------------|
D:---------------------------------------|
A:---------------------------------------|
E:---------------------------------------|
B:---4444---4444--------4444---4444--11--|

Last line of outro
G:----------------------------------------|
D:----------------------------------------|
A:----------------------------------------|
E:----------------------------------------|
B:---4444---4444--------4444---4444--4444-|

| /  slide up
| \  slide down
| h  hammer-on
| p  pull-off

            
            
Suggest correction
Creating personal tab
Creating personal tab
You can edit any tab online and save it as your Personal.

You can edit, replace or remove any tab part or add personal notes – all changes will be seen only by you.

Personal tabs can be accessed anytime from any device, even offline.
Learn more »
Give kudos to tab author, rate the tab!
1 2 3 4 5
comments
print report bad tab
guest
You may want to rate the tab now too:
select rating
Wanna post a correction for this tab? Suggest correction