Oops, an error
Loading. Please wait.

Spellbound By The Devil Live tab

version 1
version 1

Whole song

Interactive

438 views 1 this week
no commentswrite comment
1 2 3 4 5
3 more votes to show rating
add to favorites
×
Save as Personal and add changes to this tab that will be seen only by you. Learn more ›
×
You can save this tab as Personal to edit and correct it or add notes. All changes will be seen only by you. Learn more »
launch autoscroll
font size
0
reset
how to read this tab
guitar tuner
edit
Autoscroll
slow
fast
+/-
esc
set tempo
stop
Author
Difficulty
DIMMU BORGIR:SPELLBOUND (BY THE DEVIL) LIVE OZZFEST 2004.
actually it's the same as not live just small differences. and the solo.

Intro:

e----|
b----|
g-6~-|
d-6~-|
a-4~-|
E----|   hold forever then pickslide

Riff one (be sure g-string [lol] is heard, it's important if not playing with keyboards):

e-----------------------|
b-----------------------|
g-----6---4---6---4-775-|
d-----6---6---6---6-775-|
a-44444444444444444-553-|
E-----------------------|
pm**** *** *** ***

Riff two:

e----------------------|
b----------------------|
g----------------------|
d----89---98---89---98-|
a----67---76---67---76-|
E-000--000--000--000---|
pm***  ***  ***  ***
 
Riff three:

e--------------------|
b--------------------|
g--------------------|
d--------------------|
a--------------------|
E-00007612121212<12>-|
pm************** (12's not 1's and 2's)

Riff Four:

e-------|
b-------|
g-------|
d-2---3-|
a-2---3-|
E-0---1-|
cut these short the first few times then last time let them ring...then after let em ring.

Riff Five:
(listen for right amount of notes. it's pretty much a one-beat shred-spasm)
e------------------|
b------------------|
g------------------|
d--------6-------7-|
a--------6-------7-|
E-4444444455555555-|
pm******* *******

Riff Six:

e--------------------------|
b--------------------------|
g----------------------8-7-|
d-6-6666-2-2222-5-5555-8-7-|
a-6-6666-2-2222-5-5555-6-5-|
E-4-4444-0-0000-3-3333-----|

Riff Seven (a little unsure but you can get it):

e--------------------------------------------------|
b--------------------------------------------------|
g--------------------------------------------------|
d-7-777-7-797-5-555-5-575-3-333-3-333-5-555--------|
a-7-777-7-797-5-555-5-575-3-333-3-333-5-555--------|
E-5-555-5-575-3-333-3-353-1-111-1-111-3-333-531531-|

Solo (i dont know exactly how he plays it but this is what i do and you get the general idea):

e-------------------------------------------------------|
b-------------------------------------------------------|
g-------------------------------------------------------|
d--- 2-2h3p2---2--2-2h3p2---2---2-2h3p2---2---2-2h3p2---|
a-0----------3------------3-------------3-------------3-|
E----------------1------------0-------------0-----------|

e---------------------------------------------------|
b---------------------------------------------------|
g----------------------------------------------5~4~-|
d---2~-2~---2~-2h3p2------2-2h3p2-----2-2h3p2-------|
a-0~-----------------3------------3-----------------|
E--------1~------------0~-----------0~--------------|

e-----------------(7)~~~~~~~~~~~~-| 
b---------------------------------|
g---------------------------------| go crazy with whammy bar on that last  
d---2---5-4-2-0~------------------| note
a-----3---------------------------|
E-0-------------------------------|

Guitar Behind Solo:

e--------------------------------------------------|
b--------------------------------------------------|
g--------------------------------------------------|
d--------------------------------------------------|
a--------------------------------------------------|
E-555555555555111111111111333333333333444444444444-|

Guitar 2 ends on

e------|
b------|
g------|
d-7~~~-|
a-7~~~-|
E-5~~~-|

            
            
Suggest correction
Creating personal tab
Creating personal tab
You can edit any tab online and save it as your Personal.

You can edit, replace or remove any tab part or add personal notes – all changes will be seen only by you.

Personal tabs can be accessed anytime from any device, even offline.
Learn more »
Give kudos to tab author, rate the tab!
1 2 3 4 5
comments
print report bad tab
guest
You may want to rate the tab now too:
select rating
Wanna post a correction for this tab? Suggest correction