Oops, an error
Loading. Please wait.

The Sacrilegious Scorn Tab

3,815 views 6 this week
no commentswrite comment
1 2 3 4 5
please rate
add to favorites
launch autoscroll
font size
0
reset
how to read this tab
guitar tuner
Autoscroll
slow
fast
+/-
esc
set tempo
stop
Help us to improve Ultimate-Guitar.com Take our survey!
×
                   the sacrilegious scorn - dimmu borgir
----------------------------------------------------------------------------
Tabbed by: theunderstood1 aka chad

Tuning: standard

intro
e|------------------------------------------------------------------------|
B|------------------------------------------------------------------------|
G|------------------------------------------------------------------------|
D|------------------------------------------------------------------------|
A|-12/-----7-xxxx-7-xxxx-5--5--3--5---7-xxxx-7-xxxx-5--5--3--5---7-xxxx-7-|
E|-12/-----5-5555-5-5555-3--3--1--3---5-5555-5-5555-3--3--1--3---5-5555-5-|

e|-----------------------------------------------------------------------|
B|-----------------------------------------------------------------------|
G|-----------------------------------------------------------------------|
D|-----------------------------------------------------------------------|
A|-xxxx-5--5--3--5---7-xxxx-7-xxxx-7--5--3--5---7-xxxx-7-xxxx-5--5--3--5-|
E|-5555-3--3--1--3---5-5555-5-5555--------------5-5555-5-5555-3--3--1--3-|

e|---------------------------------------------------------------------|
B|---------------------------------------------------------------------|
G|---------------------------------------------------------------------|
D|---------------------------------------------------------------------|
A|-7-xxxx-7-xxxx-5--5--3--5---7-xxxx-7-xxxx-5--5--3--5---7-xxxx-7-xxxx-|
E|-5-5555-5-5555-3--3--1--3---5-5555-5-5555-3--3--1--3---5-5555-5-5555-|

e|------------|
B|------------|
G|------------|
D|------------|
A|-7--5--3--5-|
E|------------|

verse
e|-----------------------------------------------------------------------|
B|-----------------------------------------------------------------------|
G|-----------------------------------------------------------------------|
D|-----------------------------------------------------------------------|
A|-7--x-x-7--x-x-x--5---3--7--x-x-7--x-x-5-5-1-5--7--x-x-7--x-x-x--5---3-|
E|-5--x-x-5--x-x-x--3---1--5--x-x-5--x-x-3-3-3-3--5--x-x-5--x-x-x--3---1-|

e|---------------------------|
B|---------------------------|
G|---------------------------|
D|---------------------------|2x
A|-7--x-x-7--x-x--7--5--3--5-|
E|-5--x-x-5--x-x-------------|

chorus
e|-------------------------------------------------------------------|
B|-------------------------------------------------------------------|
G|-------------------------------------------------------------------|
D|-------------------------------------------------------------------|
A|-3--x-x-x-x-3--x-x-3--x-x-3--x-x-5--x-x-x-x-5--x-x-5--x-x-5--x-x-7-|
E|-1--1-1-1-1-1--1-1-1--1-1-1--1-1-3--3-3-3-3-3--3-3-3--3-3-3--3-3-5-|

e|--------------------------------------------------------------|
B|--------------------------------------------------------------|
G|--------------------------------------------------------------|
D|--------------------------------------------------------------|2x
A|-x-x-x-x-7--x-x-7--x-x-7--x-x-5--x-x-x-x-5--x-x-5--x-x-5--x-x-|
E|-5-5-5-5-5--5-5-5--5-5-5--5-5-3--3-3-3-3-3--3-3-3--3-3-3--3-3-|

interlude
e|-------------------------------------------------------------------------|
B|-------------------------------------------------------------------------|
G|-------------------------------------------------------------------------|
D|-------------------------------------------------------------------------|
A|-3--------3----x-x-x-3-3-x-x-x-3-3--33-5---------5---------5-5----5----3-|
E|-1--------1----1-1-1-1-1-1-1-1-1-1--11-3---------3---------3-3----3----1-|
                                    2x

repeat verse and chorus

bridge
e|-------------------------------------------------------------------------|
B|-------------------------------------------------------------------------|
G|-------------------------------------------------------------------------|
D|-------------------------------------------------------------------------|
A|-3-----------------------------------------------------------------------|
E|-1-----------------------------------------------------------------------|
   ^hold note

break
e|-------------------------------------------------------------------------|
B|-------------------------------------------------------------------------|
G|-------------------------------------------------------------------------|
D|-------------------------------------------------------------------------|
A|-3-------------------------------3---------------------------------------|
E|-1-------------------------------1---------------------------------------|
                                 2x
end the seccond time with this:
e|-----------------|
B|-----------------|
G|-----------------|
D|-----------------|
A|-3------7------3-|
E|-1------5------1-|

repeat break

bridge 2
e|----------------------------------------------------------------------|
B|----------------------------------------------------------------------|
G|----------------------------------------------------------------------|
D|----------------------------------------------------------------------|
A|--------------------------------------------------------------------3-|
E|-1111111---1111111-----1111111-----1111111---1111111-----111111-----1-|
                                  3x
break 2
e|----------------------------------------------------------------------|
B|----------------------------------------------------------------------|
G|----------------------------------------------------------------------|
D|----------------------------------------------------------------------|
A|-----------------------------------------------------------3----7-----|
E|-111111111111111111111111111111111111111111111111111111111-1----5-----|

interlude 2
e|----------------------------------------------------------|
B|----------------------------------------------------------|
G|----------------------------------------------------------|
D|-----6666-5555-6666-8888-6666----6666-5555-6666-8888-9999-|
A|-4444------------------------4444-------------------------|
E|----------------------------------------------------------|
                             3x
e|---------------------------------------------------|
B|---------------------------------------------------|
G|---------------------------------------------------|
D|-----6666-5555-6666-8888-6666--5555-6666-8888-9999-|
A|-4444----------------------------------------------|
E|---------------------------------------------------|

bridge 3
e|-------------------------------|
B|-------------------------------|
G|-------------------------------|
D|-------------------------------|
A|-5----5----7----5----5----3----|
E|-3----3----5----3----3----1----|

solo
e|-------------------------------------------------------------------------|
B|-8h9h11-9h10h13-11h13h14-13h14h16-14h16h18-16h18h19-19p18p16-18p16p14----|
G|-------------------------------------------------------------------------|
D|-------------------------------------------------------------------------|
A|-------------------------------------------------------------------------|
E|-------------------------------------------------------------------------|

e|----------------------------------|
B|-16p14p13-14p13p11-13p10p9-11p9p8-|
G|----------------------------------|
D|----------------------------------|
A|----------------------------------|
E|----------------------------------|

bridge 4
e|-------------------------|
B|-------------------------|
G|-------------------------|
D|-------------------------|
A|-x-x-5-x-x-5-x-x-3-x-x-3-|
E|-3-3-3-3-3-3-1-1-1-1-1-1-|
            3x
e|-----------|
B|-----------|
G|-----------|
D|-----------|
A|-5---4---3-|
E|-3---2---1-|

repeat chorus

play verse 2x and end with:
e|-------------|
B|-------------|
G|-------------|
D|-------------|
A|-7-7-5-3-7-/-|
E|-5-5-3-1-5-/-|


| /  slide up
| \  slide down
| h  hammer-on
| p  pull-off
| ~  vibrato
| +  harmonic
| x  Mute note
============================================================================
Suggest correction
Give kudos to tab author, rate the tab!
1 2 3 4 5
comments
print report bad tab
guest
You may want to rate the tab now too:
select rating
Please do not post tabs as comments. Select "correction" instead!