Oops, an error
Loading. Please wait.

Vredesbyrd tab

version 2
version 2

Whole song

Interactive

7,867 views 15 this week
8 commentsread comments
1 2 3 4 5
x 5
add to favorites
×
Save as Personal and add changes to this tab that will be seen only by you. Learn more ›
×
You can save this tab as Personal to edit and correct it or add notes. All changes will be seen only by you. Learn more »
launch autoscroll
font size
0
reset
how to read this tab
guitar tuner
edit
Autoscroll
slow
fast
+/-
esc
set tempo
stop
Author
----------------------------------------------------------------------------
                            Vredesbyrd - Dimmu Borgir
----------------------------------------------------------------------------
Tabbed by:Derz
Email:phillip55@web.de



Really cool song! Think it is 99,9% correct!
i needed about 1 and a half hour to tab that all!

Tuning:EADGBe

Riff1 and guitar2 for Riff2:x8
e|-------------------------------------------------------------------------|
B|-------------------------------------------------------------------------|
G|-------------------------------------------------------------------------|
D|---------------------3---------------------------------------------------|
A|-8888888----44444444-1-4-3-----------------------------------------------|
E|-----------------------2-1-----------------------------------------------|

Riff2: Than this Galder part!x4
e|----------------------------------------------------------------------|
B|----------------------------------------------------------------------|
G|-------13---12-------------13---12-----------8--10-11--11-------6-5-5-|
D|---10----10----11--11-----10---10--11--11--11--11----11-------8----8--|
A|-8---------------11------8-----------11----------------------8-8-----
E|------------------------------------------9----------------6----------|

Riff3:x4
e|-------------------------------------------------------------------------|
B|-------------------------------------------------------------------------|
G|-------------------------------------------------------------------------|
D|-------------------------------------------------------------------------|
A|------------2/3------2-2-44444444-11111111-4-3---------------------------|
E|-1-1-1-1-1-1----1-1-1-1--------------------2-1---------------------------|

Riff4:x4
e|-------------------------------------------------------------------------|
B|-------------------------------------------------------------------------|
G|-------------------------------------------------------------------------|
D|-5-8-7-8-7---7-8--5-8-7-8-7---8------------------------------------------|
A|-3-6-5-6-5-9-5-6--3-6-5-6-5-9-6------------------------------------------|
E|-----------7----------------7--------------------------------------------|

Riff5:x2
e|-------------------------------------------------------------------------|
B|-------------------------------------------------------------------------|
G|-------------------------------------------------------------------------|
D|-5-----7/8---------------------------------------------------------------|
A|-3-----5/6---------------------------------------------------------------|
E|-------------------------------------------------------------------------|

Riff4:x4

Guit1-Riff6:x4
e|-------------------------------------------------------------------------|
B|-------------------------------------------------------------------------|
G|-------------------------------------------------------------------------|
D|------------------9-9-9-9-10-9-8-4-5-8-7-8-7-9---------------------------|
A|------------------7-7-7-7-8--7-6-2-3-6-5-6-5-7---------------------------|
E|-00000000000000x1--------------------------------------------------------|

Guit2-Riff6:play it till riff6 ends.
e|-------------------------------------------------------------------------|
B|-------------------------------------------------------------------------|
G|-------------------------------------------------------------------------|
D|-------------------------------------------------------------------------|
A|-------------------------------------------------------------------------|
E|-0000000000000000000etc.-------------------------------------------------|

Riff4:x4

Riff7:x4
e|-------------------------------------------------------------------------|
B|-------------------------------------------------------------------------|
G|-------------------------------------------------------------------------|
D|-6-666-666-666-7-7-6-666-666-666-----------------------------------------|
A|-4-444-444-444-5-5-4-444-444-444-6-5-------------------------------------|
E|---------------------------------4-3-------------------------------------|

Riff8:x2
e|-------------------------------------------------------------------------|
B|-------------------------------------------------------------------------|
G|-------------------------------------------------------------------------|
D|-9-999-999-999-10-10-9-999-999-999---------------------------------------|
A|-7-777-777-777-8--8--7-777-777-777-9-8-----------------------------------|
E|-----------------------------------7-6-----------------------------------|

Riff7:x2

Fill:x1
e|-------------------------------------------------------------------------|
B|-------------------------------------------------------------------------|
G|-------------------------------------------------------------------------|
D|-------------------------------------------------------------------------|
A|-3--333------------------------------------------------------------------|
E|-1--111------------------------------------------------------------------|

Riff1:x8 with riff2:x4

END!

            
            
Suggest correction
Creating personal tab
Creating personal tab
You can edit any tab online and save it as your Personal.

You can edit, replace or remove any tab part or add personal notes – all changes will be seen only by you.

Personal tabs can be accessed anytime from any device, even offline.
Learn more »
comments
print report bad tab
8 comments total. Showing first comments.
0 reply
Soulburner 161 Oct 30, 2007 03:41 PM

not even close dude. Especially for that one riff you say goes like
13 12 10
10 10 10

I know the exact way Galder plays it, 100% garuntee'd proper.
If you'd like to know. Contact me at Ville.Viljanen@hotmail.com

0 reply
Derz 629 Oct 30, 2007 03:56 PM

okay thanx!

0 reply
Tyler Durden 20 Jun 09, 2008 09:37 AM

wow - quite wrong

guest
You may want to rate the tab now too:
select rating
Wanna post a correction for this tab? Suggest correction