Oops, an error
Loading. Please wait.

Bakit Ba Ganyan Tab

22 views 6 this week
no commentswrite comment
1 2 3 4 5
2 more votes to show rating
add to favorites
launch autoscroll
font size
0
reset
how to read this tab
guitar tuner
Autoscroll
slow
fast
+/-
esc
set tempo
stop
Help us to improve Ultimate-Guitar.com Take our survey!
×
Author
Difficulty
intermediate
About this tab version
This guitar tab has supporting video tutorial for easy learning. Was this info helpful? Yes No
BAKIT BA GANYAN
Dina Bonnevie

Tabs written and arranged by Edwin-E (in YouTube)
Blog: http://guitarplucking.blogspot.com
Facebook Page: http://facebook.com/EdwinEGuitar

Video Tutorial:  https://youtu.be/5Qr-54Dp688


[Intro]

E|----------------------------|-------------------------|
B|----------------0-----------|----------------0--------|
G|-----------1h2-----------4--|-----------1h2-----------|
D|--------2----------2--4-----|--------2----------2--4--|
A|-----2----------------2-----|-----2----------------2--|
E|--0-------------------------|--0----------------------|
    E                Bm       E                  B7


[Verse]

E|-----------------------| 
B|--------------------0--|
G|--------1--2--1--2-----|
D|-----------------------|
A|-----2-----------------|
E|--0--------------------|
E             
  Bakit ba ganyan

E|-----------------------------------------|
B|-----3--3--3--5--2--------------0--------|
G|-----2--------------4-----1--2-----------|
D|--2-----------------------------------2--|
A|-----2-----------------------------2-----|
E|-----------------------0-----------------|
    Bm7                 E              
Ang ibig ko'y lagi kang   pagmasdan

E|--------------------------------------------|
B|--------3--3--3--5--2--0--0-----0--2--2--2--|
G|--------2--------------------2-----------2--|
D|--2--2-----------------------------------2--|
A|--------2-----------------------0--------0--|
E|--------------------0-----------------------|
     Bm7       E7          A
Umula't umaway ay hindi pagsasawaan

E|-------0--------------------------------------------|
B|--2/4-----------2--4--5--7-----------7--------7--6--|
G|-------------2--------------4--------------4-----4--|
D|----------2-----------------------6-----6--------6--|
A|-------0-----------------------6-----4-----------4--|
E|-------------------------4--------------------------|
      Am7     G#m7   C#7sus C#7
ang iyong katangian

E|-----------------------------------|
B|-----------------2--------------4--|
G|--4--2--4--2--4-----4--4--------2--|
D|-----------------------------4--4--|
A|--------------------------2--------|
E|-----2-----------------------------|
  F#m7                  B7
Damdamin ko'y ibang-iba,

E|--------------------------------|
B|-----------2-----0--------2-----|
G|--4--4--4-----1-----------------|
D|-----------------------2-----4--|
A|--------------------2--------2--|
E|--------------0-----------------|
               E       B7sus B7
Kapag kapiling ka, sinta.


[Chorus]

E|--------------------------------------|
B|-----------------0-----3--5--3--2-----|
G|-----------1--2--------2-----------5--|
D|--------2-----------2-----------------|
A|-----2-----------------2--------------|
E|--0-----------------------------------|
E              Bm7
  Ewan ko kung bakit ba ganyan

E|--2--------------------------2-----2--0--|
B|-----3--2--0--------------0-----5--------|
G|-----------------------1-----------------|
D|-----------------2--2--------------------|
A|--------------2--------------2-----------|
E|-----0-----------------------------0-----|
   E                Bm7  E7
Damdamin ay di maintindihan

E|--0-------0----------0--|-----4--5--4--2--|
B|-----2/4--------2/4-----|--2--------------|
G|-------------2----------|-----------------|
D|------------------------|-----------------|
A|-----0------------------|-----2-----------|
E|------------------------|-----------------|
    A             B    
Kailangan ang pag-ibig mo

E|-----------------------|-----7--5--5--4--4--|
B|--4--5--7--------------|--------------------|
G|-----------4--4--------|--4-----------------|
D|--------------------6--|--------------------|
A|-----------------6-----|-----4--------------|
E|--4--------------------|--------------------|
G#m7              C#m7         
Dahil sa ako'y nagmamahal sa 'yo

E|--------2-----------|-------2--4-----2--2--0--|
B|--4--5--------------|--4/5--------5-----------|
G|-----------------2--|-------------------------|
D|--------------4-----|-------------------------|
A|-----------4--------|-------2-----------------|
E|--------2-----------|-------------------0-----|
     F#m7      B7            E 
Magmula nang kita    ay makilala
E|-------------------|
B|-------0-----------|
G|--1h2-----------4--|
D|----------2--4-----|
A|-------------2-----|
E|-------------------|
E              B7


[Verse]

E|--------0--------------------|
B|-----------0--------0--------|
G|--------------1--2-----------|
D|--------------------------2--|
A|-----2-----------------2-----|
E|--0--------------------------|
E                      
  Bakit ba ganyan, 

E|--------------------------|--------------------|
B|-----3--3--3--5--2--------|-----------0--------|
G|-----2--------------4--4--|-----1--2-----------|
D|--2-----------------------|-----------------2--|
A|-----2--------------------|--------------2-----|
E|--------------------------|--0-----------------|
      Bm7              E       
Kung minsan ay nauutal  sa kaba

E|--------------------------|
B|-----3--3--3--5--2--0--0--|
G|-----2--------------------|
D|--2-----------------------|
A|-----2--------------------|
E|-----------------0--------|
  Bm7         E7
Kapag ika'y kausap na

E|--------------------|-------0-----------|
B|-----0--2--2--2--2--|--2/4-----------2--|
G|--2--------------2--|-------------2-----|
D|--------------------|-------0--2--------|
A|-----0-----------0--|-------------------|
E|--------------------|-------------------|
   A                  Am7
Ngunit lumalakas ang loob 

E|-----------------------------------|
B|--4--7--------------------2-----4--|
G|--------4--------------------4--2--|
D|--------------6--4--6--4--------4--|
A|-----------6--------------2-----2--|
E|-----4-----------------------------|
     G#m         F#m  B7
Kung ikaw ay nakata---wa.

(Repeat Chorus except last line)

E|--------5----------------2--4-----2--2--------------2--|
B|--4--5--------------4/5--------5--------------------4--|
G|-----------------2----------------------------1--1--2--|
D|--------------4----------------------------2-----2--4--|
A|-----------4-------------2--------------2--------2--2--|
E|--------2----------------------------0-----------0-----|
     F#m7      B7sus B7     E    C7
Magmula nang kita    ay makilala


[Chorus]

E|--5/6--5-----6--5--3-----|--------------------|
B|----------------------6--|--6--4--6--4--3-----|
G|-------------------------|-----3-----------5--|
D|----------3--------------|--------------------|
A|-------------------------|-----3--------------|
E|-------------------------|--------------------|
      F             Cm7      
Oh-Oh, Ewan ko kung bakit ba ganyan

E|--3-----------------|-----------3-----3--1--|
B|-----4--3--1--------|--------1-----6--------|
G|--------------------|-----2-----------------|
D|-----------------3--|--3--------------------|
A|--------------3-----|-----------3-----------|
E|-----1--------------|-----------------1-----|
    F              Cm7   F7
Damdamin ay di maintindihan

E|--------0--1--------0--1--|-----5--6--5--3--|
B|--3--3-----------3--------|--3--------------|
G|--------------3-----------|-----------------|
D|--------------------------|-----------------|
A|-----1--------------------|-----3-----------|
E|--------------------------|-----------------|
    Bb            C
Kailangan ang pag-ibig mo

E|--0--1--3-----------0--|-----6/8--6--6--5--5--|
B|-----------1--1-----1--|--1----------------7--|
G|--------------------2--|-------------------7--|
D|-----------------2-----|-----0-------------0--|
A|--0--------------------|----------------------|
E|-----------------------|----------------------|
Am7               Dm         
Dahil sa ako'y nagmamahal sa 'yo

E|--------3--------|-------3--5-----3--3--1--|
B|--5--6-----------|--5/6--------6-----------|
G|-----------------|-------------------------|
D|--------------5--|-------------------------|
A|-----------5-----|-------3-----------------|
E|--------3--------|-------------------1-----|
   Gm        C7sus   C7     F
Magmula nang kita    ay makilala

E|-------------------1--|
B|-------1-----------1--|
G|--2h3-----------5--2--|
D|----------3--5-----3--|
A|-------------3-----3--|
E|-------1-----------1--|
    F               C7


**************************

| / Slide Up 
| h Hammer On 

**************************
Suggest correction
Give kudos to tab author, rate the tab!
1 2 3 4 5
comments
print report bad tab
guest
You may want to rate the tab now too:
select rating
Wanna post a correction for this tab? Suggest correction