Oops, an error
Loading. Please wait.

Levoton Tuhkimo Bass Tab

version 1
version 1

Whole song

Interactive

1,474 views 6 this week
no commentswrite comment
1 2 3 4 5
please rate
add to favorites
launch autoscroll
font size
0
reset
guitar tuner
Autoscroll
slow
fast
+/-
esc
set tempo
stop
Help us to improve Ultimate-Guitar.com Take our survey!
×
Difficulty
novice
Intro (to the start):

G|-------------------------|
D|-------------------------|
A|-------------------------|
E|-5-5-5-5-5-5-5-5-5-5-5-5-|


Start: (When the lyrics arrives)  (x2):

G|---------------------------------|
D|---------------------------------|
A|---------------------------------|
E|-5-5-5-5-5-5-5-5-1-1-1-1-1-1-1-1-|


G|---------------------------------|
D|---------------------------------|
A|---------------------------------|
E|-5-5-5-5-5-5-5-5-1-1-1-1-1-1-1-1-|


G|---------------------------------|
D|---------------------------------|
A|---------------------------------|
E|-3-3-3-3-3-3-3-3-1-1-1-1-1-1-1-1-|

G|---------------------------------|
D|---------------------------------|
A|---------------------------------|
E|-0-0-0-0-0-0-0-0-5-5-5-5-5-5-5-5-|


Chorus (x4):

G|----------------------------------|
D|----------------------------------|
A|---------33333333-----------------|
E|-11111111--------0000000055555555-|

start: x2
Chorus: x3
Intro: (when the second lyrics arrives)
start: x2
chorus: x4
Intro
chorus:  at the end
Suggest correction
Give kudos to tab author, rate the tab!
1 2 3 4 5
comments
print report bad tab
guest
You may want to rate the tab now too:
select rating
Wanna post a correction for this tab? Suggest correction