Oops, an error
Loading. Please wait.

Ammaring tab

9,505 views 15 this week
no commentswrite comment
1 2 3 4 5
x 6
add to favorites
×
Save as Personal and add changes to this tab that will be seen only by you. Learn more ›
×
You can save this tab as Personal to edit and correct it or add notes. All changes will be seen only by you. Learn more »
launch autoscroll
font size
0
reset
how to read this tab
guitar tuner
edit
Autoscroll
slow
fast
+/-
esc
set tempo
stop
Here is how I play this cool wee tune...

The verse phrase is repeated x4 before the words kick in.
If you know the song, you'll know the rhythmn, not EVERY strum is depicted here!


***CAPO 5th Fret***

VERSE:
E|------------------------------3----|
B|(0)h1--3\5--3-1-0-1-3\5---1---1----|
G|----2--2\4--2-2-2-2-2\4---0---0----|
D|----3--3\5--3-3-3-3-3\5---2---2----|
A|----0---------------------3---3----|
E|-----------------------------------|

There's some scenery I'm missing 
There's a piece I can't undo 
Remember when I really blew it 
Wish I would've thought of you 

E|------------------------------3---3-3-3-3-3--|
B|(0)h1--3\5--3-1-0-1-3\5---1---1---1-1-0h1-0--|
G|----2--2\4--2-2-2-2-2\4---0---0---0-0-0-0-0--|
D|----3--3\5--3-3-3-3-3\5---2---2---2-0-0-0-0--|
A|----0---------------------3---3---3-2-2-2-2--|
E|--------------------------------------3-3-3--|

CHORUS:
E|---------------------------------------------------------3--------|
B|0h1-1-1-1-1-1-1\3-3-3-5-3--0-0-3-3-3-0-3-0--0h1-1-3h1-3/5-5-3\1-0h1
G|2-2-2-2-2-2-2—2\4-4-4-4-4--0-0-0-0-0-0-0-0--2-2-2-2-2-------------|
D|3-3-3-3-3-3-3—3\5-5-5-5-5--2-2-2-2-2-2-2-2--3-3-3-3-3-------------|
A|0-0-0-0-0-0-0--------------2-2-2-2-2-2-2-2--0-0-0-0-0-------------|
E|---------------------------0-0-0-0-0-0-0-0------------------------|

Tell the Ammaring 
Tell a friend 
Tell the only one around who's going to know 
Just what to send 
It's the Ammaring 
It's a smile 
Saying time to come with me son 
You'll be gone for quite a while 
Come on now

GUITAR SOLO (over chorus phrase)

then:
E|-------------|
B|--0h1--0h1---|
G|--0h2--0h2---|
D|--0h2--0h2---|  (x2)
A|--0-0--0h0---|
E|-------------|


VERSE:
E|------------------------------3----|
B|(0)h1--3\5--3-1-0-1-3\5---1---1----|
G|----2--2\4--2-2-2-2-2\4---0---0----|
D|----3--3\5--3-3-3-3-3\5---2---2----|
A|----0---------------------3---3----|
E|-----------------------------------|

Drifting's made a big impression 
Changed the focus changed the goal 
It's less and less about our reasons 
It's more about losing control 

GUITAR SOLO (over verse phrase)

then:
E|------------------------------3---3-3-3-3-3--|
B|(0)h1--3\5--3-1-0-1-3\5---1---1---1-1-0h1-0--|
G|----2--2\4--2-2-2-2-2\4---0---0---0-0-0-0-0--|
D|----3--3\5--3-3-3-3-3\5---2---2---2-0-0-0-0--|
A|----0---------------------3---3---3-2-2-2-2--|
E|--------------------------------------3-3-3--|

CHORUS:
E|---------------------------------------------------------3--------|
B|0h1-1-1-1-1-1-1\3-3-3-5-3--0-0-3-3-3-0-3-0--0h1-1-3h1-3/5-5-3\1-0h1
G|2-2-2-2-2-2-2—2\4-4-4-4-4--0-0-0-0-0-0-0-0--2-2-2-2-2-------------|
D|3-3-3-3-3-3-3—3\5-5-5-5-5--2-2-2-2-2-2-2-2--3-3-3-3-3-------------|
A|0-0-0-0-0-0-0--------------2-2-2-2-2-2-2-2--0-0-0-0-0-------------|
E|---------------------------0-0-0-0-0-0-0-0------------------------|


Get the Ammaring 
Get a friend 
Get the only one around whose going to know 
Just what to send 
It's the Ammaring 
It's a smile 
Saying time to come with me son 
You'll be gone for quite a while 
Come on now 

GUITAR SOLO (over horus phrase)

OUTRO VERSE:(over chorus phrase a bit more staccato)
There's the Ammaring 
There you are 
I don't know too much about it 
But I know that your a star 
Come on now

            
            
Suggest correction
Creating personal tab
Creating personal tab
You can edit any tab online and save it as your Personal.

You can edit, replace or remove any tab part or add personal notes – all changes will be seen only by you.

Personal tabs can be accessed anytime from any device, even offline.
Learn more »
comments
print report bad tab
guest
You may want to rate the tab now too:
select rating
Wanna post a correction for this tab? Suggest correction