Oops, an error
Loading. Please wait.

Blowing It tab

version 1
version 1

Whole song

Interactive

4,264 views 6 this week
2 commentsread comments
1 2 3 4 5
x 4
add to favorites
×
Save as Personal and add changes to this tab that will be seen only by you. Learn more ›
×
You can save this tab as Personal to edit and correct it or add notes. All changes will be seen only by you. Learn more »
launch autoscroll
font size
0
reset
how to read this tab
guitar tuner
edit
Autoscroll
slow
fast
+/-
esc
set tempo
stop
Author
Blowing It by Dinosaur Jr, submitted by Leosten.

Here's my tab of Blowing It from Dinosaur Jr, 
I couldn't find any text only exact one so I made 
mine by looking closely at J Mascis playing live 
and by looking at other tabs, and I think it's pretty correct.

Standard Tuning

Intro
e|---------------------------|
B|------3-----3--0-----1-----|
G|----0-----0----0-----0-----|
D|--4-----4------2-----2-----|
A|---------------3-----3-----|
E|---------------------------|

listen to the song for the strumming of the verse.

Verse

    C       D
e|--0-------2------------------------------------------------------|
B|--1-------3------------------------------------------------------|
G|--0-------0------------------------------------------------------|
D|--2-------0------------------------------------------------------|
A|--3-------x------------------------------------------------------|
E|--x-------x------------------------------------------------------|
      

Here's the problematic part, I think 
this is pretty correct, that's how 
J Mascis plays it live.
Once again, listen to the song for the strumming.

Chorus

    G     D
e|--3-----7-----7-----7--------------0--------------------------------------|
B|--3-----8-----8-----8--------------0--------------------------------------|
G|--0-----7-----7-----9--------------0--------------------------------------|
D|--0-----7-----7-----9--------------2--------------------------------------|
A|--2-----x-----7-----x--------------3--------------------------------------|
E|--3-----x-----x-----x--------------x--------------------------------------|

Enjoy!


            
            
Suggest correction
Creating personal tab
Creating personal tab
You can edit any tab online and save it as your Personal.

You can edit, replace or remove any tab part or add personal notes – all changes will be seen only by you.

Personal tabs can be accessed anytime from any device, even offline.
Learn more »
comments
print report bad tab
2 comments total.
0 reply
LargeReptileSnr 50 Mar 02, 2013 12:56 AM

Great tab, well done! I think the D in the verse is a D5 but it looks like you probably meant to put that anyway!

+1 reply
bobbyshroom 10 Jan 04, 2014 08:14 AM

Nice tab, but I'd like to proffer a slightly altered version of the chorus. I've tried to make it as correct as possible, but you can judge for yourselves.

G A11 Em Em/B Cmaj7
e|-----3--|---7---|--7--|---7---|---0---|
B|-----3--|---8---|--8--|---8---|---0---|
G|-----4--|--(7)--|--0--|---9---|---4---|
D|-----5--|---7---|--x--|---9---|---5---|
A|-----5--|---0---|--7--|--(0)--|---3---|
E|--3--3--|---x---|--x--|---x---|---x---|
T T

The notes in parenthesis are optional -- play them or mute them, it's up to you. Fret the G bass note with your thumb and hit it only once before strumming the G chord. Not much else to it.

guest
You may want to rate the tab now too:
select rating
Wanna post a correction for this tab? Suggest correction