Oops, an error
Loading. Please wait.

Get Me tab

version 2
version 2

Whole song

Interactive

796 views 6 this week
no commentswrite comment
1 2 3 4 5
2 more votes to show rating
add to favorites
×
Save as Personal and add changes to this tab that will be seen only by you. Learn more ›
×
You can save this tab as Personal to edit and correct it or add notes. All changes will be seen only by you. Learn more »
launch autoscroll
font size
0
reset
how to read this tab
guitar tuner
edit
Autoscroll
slow
fast
+/-
esc
set tempo
stop
Author
Difficulty
Get Me by Dinosaur Jr.

Tabbed by Jucko

Tuning: Standard

Nb. I decided not to tab out the 2nd and 3rd solos as this would have taken forever. 
I may give it a crack if this tab is looked upon favourably though! 


Verse 1

   G               G/F#            C9              D9add4           
   1 & 2 & 3 & 4 & 1 & 2 & 3 & 4 & 1 & 2 & 3 & 4 & 1 & 2 & 3 & 4 & 
e|-3---3---3-3-3-3-3---3---3-3-3-3-3---3---3-3-3-----------0-------|
B|-3---3---3-3-3-3-3---3---3-3-3-3-3---3---3-3-3-------------2-----|
G|-0---0---0-0-0-0-0---0---0-0-0-0-0---0---0-0-0-------0-------0-0-|
D|-0---0---0-0-0-0-0---0---0-0-0-0-2---2---2-2-2-------4-----------|
A|-2---2---2-2-2-2-x---x---x-x-x-x-3---3---3-3-3---3/5-------------|
E|-3---3---3-3-3-3-2---2---2-2-2-2---------------------------------|
         I won’t see you I won’t call you I don’t know enough to stall   

   Bm              C               Am               C       G5/D
   1 & 2 & 3 & 4 & 1 & 2 & 3 & 4 & 1 & 2 & 3 &  4 & 1 & 2 & 3 & 4 & 
e|---------2---------------3------------------------0-------x------|
B|---------3-----------1-1---1-------------0hp1-----1-------3------|
G|---------4-----------------------------2------2-0-0-------0------|
D|-----4---4---------------------------2------------2-------5------|
A|-2-------------2-3---------------0----------------3-------5------|
E|-----------------------------------------------------------------|
       you, is it me or is it all you?   Guess it’s on  and on

Verse 2

G      G/F#           C9                    D9add4           
  On a day, maybe I'd show you but it's the least of all I 
Bm                 C                Am                C      G5/D
Go through but the thing is I don't know you and it's on and on

Link
   G               D               G               C 
   1 & 2 & 3 & 4 & 1 & 2 & 3 & 4 & 1 & 2 & 3 & 4 & 1 & 2 & 3 & 4 & 
e|-3-------3-3-----2-------2-------3-------3-3-----0-----0-0-0-----|
B|-0-------0-0-----3-------3-------0-------0-0-----1-----0-1-0-----|
G|-0-------0-0-----2-------2-------0-------0-0-----0-----0-0-0-----|
D|-0-------0-0-----0-------0-------0-------0-0-----2-----2-2-2-----|
A|-2-------2-2---------------------2-------2-2-----3-----3-3-3-----| x 2
E|-3-------3-3---------------------3-------3-3---------------------|

Verse 3

G           G/F#                C9                D9add4           
  Trembling words don't make my eyes close and if anyone then 
Bm                 C                  Am                  C      G5/D
You'd know I can't find out 'cause it won't show and it's on and on

Verse 4

G         G/F#             C9             D9add4           
    Every dream is shot by daylight and I pray that maybe 
Bm                  C          Am                        C      G5/D
You're right but if you don't, maybe I might 'cause it's on and on

First solo 
   
   G               G/F#              C9              D9add4           
e|-----------------------------------------------------------------10-|
B|-----8---------------------------------------------8h10-8---10/12---|
G|-7/9-----9-7--------------------------------7-9/11------------------|
D|-------------9-7-------------------9h10-9---------------------------|
A|-----------------10-12h--10-12h-10----------------------------------|
E|--------------------------------------------------------------------|

   Bm                  C       Am                  C     G5/D
e|-12-10-----------------------------15---------------7---------------|
B|-----------13-12--13-15------15bh-----15rb-------10----10br-8-10b-8-|
G|--------------------------------------------------------------------|
D|--------------------------------------------------------------------|
A|--------------------------------------------------------------------|
E|--------------------------------------------------------------------|

Verse 5

G           G/F#             C9                D9add4     
    When it takes too long I lose it I'll just hang while you 
Bm              C                   Am                    C      G5/D
Abuse it if you knew then why'd you choose it 'cause it's on and on  

Chorus

   C5                       (&=Cmaj74,4=Cmaj7)                       
   1 & 2 & 3 & 4 & 1 & 2 & 3 & 4 & 1 & 2 & 3 & 4 & 1 & 2 & 3 & 4 & 
e|-3-------3-----3---3-----3-1-0---3-------3-----3---3-----3-1-0---|
B|-1-------1-----1---1-----1-0-0---1-------1-----1---1-----1-0-0---|
G|-0-------0-----0---0-----0-0-0---0-------0-----0---0-----0-0-0---|
D|-2-------2-----2---2-----2-2-2---2-------2-----2---2-----2-2-2---|
A|-3-------3-----3---3-----3-3-3---3-------3-----3---3-----3-3-3---|
E|-----------------------------------------------------------------|
                                          You're not gonna get me through this.. 

   C5                       (&=Cmaj74,4=Cmaj7)                       
   1 & 2 & 3 & 4 & 1 & 2 & 3 & 4 & 1 & 2 & 3 & 4 & 1 & 2 & 3 & 4 & 
e|-3-------3-----3---3-----3-1-0---3-------3-----3---3-----3-1-0---|
B|-1-------1-----1---1-----1-0-0---1-------1-----1---1-----1-0-0---|
G|-0-------0-----0---0-----0-0-0---0-------0-----0---0-----0-0-0---|
D|-2-------2-----2---2-----2-2-2---2-------2-----2---2-----2-2-2---|
A|-3-------3-----3---3-----3-3-3---3-------3-----3---3-----3-3-3---|
E|-----------------------------------------------------------------|
 ..are you                  

   C5                       (&=Cmaj74,4=Cmaj7)                       
   1 & 2 & 3 & 4 & 1 & 2 & 3 & 4 & 1 & 2 & 3 & 4 & 1 & 2 & 3 & 4 & 
e|-3-------3-----3---3-----3-1-0---3-------3-----3---3-----3-1-0---|
B|-1-------1-----1---1-----1-0-0---1-------1-----1---1-----1-0-0---|
G|-0-------0-----0---0-----0-0-0---0-------0-----0---0-----0-0-0---|
D|-2-------2-----2---2-----2-2-2---2-------2-----2---2-----2-2-2---|
A|-3-------3-----3---3-----3-3-3---3-------3-----3---3-----3-3-3---|
E|-----------------------------------------------------------------|
                                         You're not gonna get me through this.. 

   C5                       (&=Cmaj74,4=Cmaj7)                       
   1 & 2 & 3 & 4 & 1 & 2 & 3 & 4 & 1 & 2 & 3 & 4 & 1 & 2 & 3 & 4 & 
e|-3-------3-----3---3-----3-1-0---3-------3-----3---3-----3-1-0---|
B|-1-------1-----1---1-----1-0-0---1-------1-----1---1-----1-0-0---|
G|-0-------0-----0---0-----0-0-0---0-------0-----0---0-----0-0-0---|
D|-2-------2-----2---2-----2-2-2---2-------2-----2---2-----2-2-2---|
A|-3-------3-----3---3-----3-3-3---3-------3-----3---3-----3-3-3---|
E|-----------------------------------------------------------------|
 ..are you                  

Verse 6

G    G/F#              C9                 D9add4           
  Anytime I'm there to show you but if it takes too long I 
Bm               C                 Am                  C      G5/D
Know you out the door just leavin' me screwed and it's on and on

Verse 7 

G       G/F#          C9               D9add4           
   Everytime I try to fight it It's so hard to seem 
   Bm          C                   Am               C      G5/D
Excited and if you don't turn I'll bite it and it's on and on

Repeat chorus 

Second solo (played over 'Chorus' chord progression)

Verse 8

G         G/F#             C9               D9add4           
  I don't see you, I won't call you I don't know enough to 
Bm                C            Am                   C      G5/D
Stall you.. is it me, or is it all you? 'Cause it's on and on 

Verse 9

G       G/F#             C9             D9add4           
  Every dream is shot by daylight and I pray maybe that 
Bm                  C               Am                  C      G5/D
You're right but if you don't maybe I might 'cause it's on and on

Third Solo/Outro (played over 'Chorus' chord progression)

End 

            
            
Suggest correction
Creating personal tab
Creating personal tab
You can edit any tab online and save it as your Personal.

You can edit, replace or remove any tab part or add personal notes – all changes will be seen only by you.

Personal tabs can be accessed anytime from any device, even offline.
Learn more »
Give kudos to tab author, rate the tab!
1 2 3 4 5
comments
print report bad tab
guest
You may want to rate the tab now too:
select rating
Wanna post a correction for this tab? Suggest correction