Oops, an error
Loading. Please wait.

Goin Down tab

1,570 views 27 this week
1 commentread comment
1 2 3 4 5
x 4
add to favorites
×
Save as Personal and add changes to this tab that will be seen only by you. Learn more ›
×
You can save this tab as Personal to edit and correct it or add notes. All changes will be seen only by you. Learn more »
launch autoscroll
font size
0
reset
how to read this tab
guitar tuner
edit
Autoscroll
slow
fast
+/-
esc
set tempo
stop
DINOSAUR JR.
"Goin Down"
From the album "Give A Glimpse Of What Yer Not" (2016)

Open G Tuning (D G D G B D)
Tempo = 170 bpm


[Intro]
D|----------||--------------------|-------------------||
B|----------||--------------------|---------3---------||
G|--------2-||--(2)-0-----------2-|-(2)-0---2--0---2--||
D|--------2-||--(2)-0-----------2-|-(2)-0---0--0---2--|| x6
G|----------||--------0-0-0-0-0---|-------0------0----||
D|----------||--------------------|-------------------||


[Verse]
D||-----------------|-----------------|----------------|------------------|
B||---0--0--0-0-0-0-|-0-0-0-0-0-0-0-0-|--0--0--0-0-0-0-|-0-0-0-0-0-0-0----|
G||---0--0--0-0-0-0-|-0-0-0-0-0-0-0-0-|--0--0--0-0-0-0-|-0-0-0-0-0-0-0-2--|
D||--/5--5--5-5-5-5-|-5-5-5-5-5-5-5-5-|--5--5--5-5-5-5-|-5-5-5-5-5-5-5-2--|
G||--/5--5--5-5-5-5-|-5-5-5-5-5-5-5-5-|--5--5--5-5-5-5-|-5-5-5-5-5-5-5----|
D||-----------------|-----------------|----------------|------------------|


D|-------------------|------------------|-------------------|-------------------||
B|-------------------|---------3--------|-------------------|---------3---------||
G|-(2)-0-----------2-|-(2)-0---2--0---2-|-(2)-0-----------2-|-(2)-0---2--0---2--||
D|-(2)-0-----------2-|-(2)-0---0--0---2-|-(2)-0-----------2-|-(2)-0---0--0---2--|| x2
G|-------0-0-0-0-0---|-------0------0---|-------0-0-0-0-0---|-------0------0----||
D|-------------------|------------------|-------------------|-------------------||


[Pre-Chorus]
D|-----------------|-----------------|------------------|-----------------|
B|-----------------|-----------------|------------------|-----------------|
G|-3-3-3-3-3-3-3-3-|-3-3-3-3-3-3-3-3-|-/5-5-5-5-5-5-5-5-|-5-5-5-5-5-5-5-5-|
D|-3-3-3-3-3-3-3-3-|-3-3-3-3-3-3-3-3-|-/5-5-5-5-5-5-5-5-|-5-5-5-5-5-5-5-5-|
G|-3-3-3-3-3-3-3-3-|-3-3-3-3-3-3-3-3-|-/5-5-5-5-5-5-5-5-|-5-5-5-5-5-5-5-5-|
D|-----------------|-----------------|------------------|-----------------|


D|------------|---------------------|
B|-/12--------|-13p12-13p12-(12)----|
G|-/12--------|---------------------|
D|-/12--------|---------------------|
G|------------|---------------------|
D|------------|---------------------|


[Riff]
D||-------------------|------------------||
B||-------------------|---------3--------||
G||-(2)-0-----------2-|-(2)-0---2--0---2-||
D||-(2)-0-----------2-|-(2)-0---0--0---2-|| x4
G||-------0-0-0-0-0---|-------0------0---||
D||-------------------|------------------||


[Verse]
D||-----------------|-----------------|----------------|------------------|
B||---0--0--0-0-0-0-|-0-0-0-0-0-0-0-0-|--0--0--0-0-0-0-|-0-0-0-0-0-0-0----|
G||---0--0--0-0-0-0-|-0-0-0-0-0-0-0-0-|--0--0--0-0-0-0-|-0-0-0-0-0-0-0-2--|
D||--/5--5--5-5-5-5-|-5-5-5-5-5-5-5-5-|--5--5--5-5-5-5-|-5-5-5-5-5-5-5-2--|
G||--/5--5--5-5-5-5-|-5-5-5-5-5-5-5-5-|--5--5--5-5-5-5-|-5-5-5-5-5-5-5----|
D||-----------------|-----------------|----------------|------------------|


D|-------------------|------------------|-------------------|-------------------||
B|-------------------|---------3--------|-------------------|---------3---------||
G|-(2)-0-----------2-|-(2)-0---2--0---2-|-(2)-0-----------2-|-(2)-0---2--0---2--||
D|-(2)-0-----------2-|-(2)-0---0--0---2-|-(2)-0-----------2-|-(2)-0---0--0---2--|| x2
G|-------0-0-0-0-0---|-------0------0---|-------0-0-0-0-0---|-------0------0----||
D|-------------------|------------------|-------------------|-------------------||


[Pre-Chorus]
D|-----------------|-----------------|------------------|-----------------|
B|-----------------|-----------------|------------------|-----------------|
G|-3-3-3-3-3-3-3-3-|-3-3-3-3-3-3-3-3-|-/5-5-5-5-5-5-5-5-|-5-5-5-5-5-5-5-5-|
D|-3-3-3-3-3-3-3-3-|-3-3-3-3-3-3-3-3-|-/5-5-5-5-5-5-5-5-|-5-5-5-5-5-5-5-5-|
G|-3-3-3-3-3-3-3-3-|-3-3-3-3-3-3-3-3-|-/5-5-5-5-5-5-5-5-|-5-5-5-5-5-5-5-5-|
D|-----------------|-----------------|------------------|-----------------|


D|------------|---------------------|
B|-/12--------|-13p12-13p12-(12)----|
G|-/12--------|---------------------|
D|-/12--------|---------------------|
G|------------|---------------------|
D|------------|---------------------|


[Chorus]
D||-------------------|-------------------------||
B||--0-0-0-0-0-0-0----|-------------------------||
G||--0-0-0-0-0-0-0----|-------------------------||
D||--0-0-0-0-0-0-0--7-|-(7)---------------------|| x8
G||--0-0-0-0-0-0-0--7-|-(7)--9--9---9--9--9--9--||
D||-------------------|-----10-10--10-10-10-10--||


[Riff After Chorus]
D|-------------------|--------------------|----------------------|----------------------|
B|-------------------|--------------------|----------------------|----------------------|
G|-------------------|--------------------|----------------------|----------------------|
D|-------------------|--------------------|----------------------|----------------------|
G|---7-10-7---10-7---|-10-7---10-7---10-7-|----9-12-9----12-9----|-12-9----12-9----12-9-|
D|-8--------8------8-|------8------8------|-10--------10------10-|------10------10------|


D||-------------------|------------------||
B||-------------------|---------3--------||
G||-(2)-0-----------2-|-(2)-0---2--0---2-||
D||-(2)-0-----------2-|-(2)-0---0--0---2-|| x4
G||-------0-0-0-0-0---|-------0------0---||
D||-------------------|------------------||


[Verse]
D||-----------------|-----------------|----------------|------------------|
B||---0--0--0-0-0-0-|-0-0-0-0-0-0-0-0-|--0--0--0-0-0-0-|-0-0-0-0-0-0-0----|
G||---0--0--0-0-0-0-|-0-0-0-0-0-0-0-0-|--0--0--0-0-0-0-|-0-0-0-0-0-0-0-2--|
D||--/5--5--5-5-5-5-|-5-5-5-5-5-5-5-5-|--5--5--5-5-5-5-|-5-5-5-5-5-5-5-2--|
G||--/5--5--5-5-5-5-|-5-5-5-5-5-5-5-5-|--5--5--5-5-5-5-|-5-5-5-5-5-5-5----|
D||-----------------|-----------------|----------------|------------------|


D|-------------------|------------------|-------------------|-------------------||
B|-------------------|---------3--------|-------------------|---------3---------||
G|-(2)-0-----------2-|-(2)-0---2--0---2-|-(2)-0-----------2-|-(2)-0---2--0---2--||
D|-(2)-0-----------2-|-(2)-0---0--0---2-|-(2)-0-----------2-|-(2)-0---0--0---2--|| x2
G|-------0-0-0-0-0---|-------0------0---|-------0-0-0-0-0---|-------0------0----||
D|-------------------|------------------|-------------------|-------------------||


[Pre-Chorus]
D|-----------------|-----------------|------------------|-----------------|
B|-----------------|-----------------|------------------|-----------------|
G|-3-3-3-3-3-3-3-3-|-3-3-3-3-3-3-3-3-|-/5-5-5-5-5-5-5-5-|-5-5-5-5-5-5-5-5-|
D|-3-3-3-3-3-3-3-3-|-3-3-3-3-3-3-3-3-|-/5-5-5-5-5-5-5-5-|-5-5-5-5-5-5-5-5-|
G|-3-3-3-3-3-3-3-3-|-3-3-3-3-3-3-3-3-|-/5-5-5-5-5-5-5-5-|-5-5-5-5-5-5-5-5-|
D|-----------------|-----------------|------------------|-----------------|


[Solo]
D|---------------|-----------------|---------------|-----------------------|
B|---------------|-18--------------|-15--15---15---|-13-12-----------------|
G|-17b19=========|====17r(17)------|---------------|-------14-12-----12-14-|
D|---------------|-----------------|---------------|--------------14-------|
G|---------------|-----------------|---------------|-----------------------|
D|---------------|-----------------|---------------|-----------------------|


D|---------------------|--------------------------------|---------------------|-17-----------------------|
B|---------------------|-------------------------15b17--|-(15)--15---17-15-17-|----17-15--12h15p12----12-|
G|-(14)/16-16----16-17-|-16-14-12-14b16r=(14)-12--------|---------------------|--------------------14----|
D|---------------------|--------------------------------|---------------------|--------------------------|
G|---------------------|--------------------------------|---------------------|--------------------------|
D|---------------------|--------------------------------|---------------------|--------------------------|


D|-----------------------|--------------------|-----------|------------------|-------------------------|
B|-12------12------12-13-|-12--13--15--13-12--|-----------|---------------15-|-(15)--18-15-18b20-18-15-|
G|-14b16---14b16---------|--------------------|-14b15=====|=r14----15--17----|-------------------------|
D|-----------------------|--------------------|-----------|------------------|-------------------------|
G|-----------------------|--------------------|-----------|------------------|-------------------------|
D|-----------------------|--------------------|-----------|------------------|-------------------------|


D|-------------------------------|------------|
B|-18p15----15-------------18b20-|-(18)~~~----|
G|-------17----17-15----15-------|------------|
D|-------------------17----------|------------|
G|-------------------------------|------------|
D|-------------------------------|------------|


[Chorus]
D||-------------------|-------------------------||
B||--0-0-0-0-0-0-0----|-------------------------||
G||--0-0-0-0-0-0-0----|-------------------------||
D||--0-0-0-0-0-0-0--7-|-(7)---------------------|| x8
G||--0-0-0-0-0-0-0--7-|-(7)--9--9---9--9--9--9--||
D||-------------------|-----10-10--10-10-10-10--||


[Outro]
   Sitar
D|-------------------|--------------------|----------------------|------------5-----2-0-|
B|-------------------|--------------------|----------------------|----------------------|
G|-------------------|--------------------|----------------------|----------------------|
D|-------------------|--------------------|----------------------|----------------------|
G|-------------------|--------------------|----------------------|----------------------|
D|-------------------|--------------------|----------------------|----------------------|
 |
 | Gtr I
D|-------------------|--------------------|----------------------|----------------------|
B|-------------------|--------------------|----------------------|----------------------|
G|-------------------|--------------------|----------------------|----------------------|
D|-------------------|--------------------|----------------------|----------------------|
G|---7-10-7---10-7---|-10-7---10-7---10-7-|----9-12-9----12-9----|-12-9----12-9----12-9-|
D|-8--------8------8-|------8------8------|-10--------10------10-|------10------10------|


D|-(0)---------------|----------------0-|-(0)---------------|---------5--2---0-|
B|-------------------|------------0-----|-------------------|------------------|
G|-----------------0-|-(0)--------------|-------------------|------------------|
D|-------------------|------------------|-------------------|------------------|
G|-------------------|------------------|-------------------|------------------|
D|-------------------|------------------|-------------------|------------------|
 |
D|-------------------|------------------|-------------------|------------------|
B|-------------------|---------3--------|-------------------|---------3--------|
G|--2--0-----------2-|-(2)-0---2--0---2-|-(2)-0-----------2-|-(2)-0---2--0---2-|
D|--2--0-----------2-|-(2)-0---0--0---2-|-(2)-0-----------2-|-(2)-0---0--0---2-|
G|-------0-0-0-0-0---|-------0------0---|-------0-0-0-0-0---|-------0------0---|
D|-------------------|------------------|-------------------|------------------|


D|-(0)---------------|----------------0-|-(0)---------------|---------5--7---5-|
B|-------------------|------------0-----|-------------------|------------------|
G|-----------------0-|-(0)--------------|-------------------|------------------|
D|-------------------|------------------|-------------------|------------------|
G|-------------------|------------------|-------------------|------------------|
D|-------------------|------------------|-------------------|------------------|
 |
D|-------------------|------------------|-------------------|------------------|
B|-------------------|---------3--------|-------------------|---------3--------|
G|-(2)-0-----------2-|-(2)-0---2--0---2-|-(2)-0-----------2-|-(2)-0---2--0---2-|
D|-(2)-0-----------2-|-(2)-0---0--0---2-|-(2)-0-----------2-|-(2)-0---0--0---2-|
G|-------0-0-0-0-0---|-------0------0---|-------0-0-0-0-0---|-------0------0---|
D|-------------------|------------------|-------------------|------------------|


D|-(5)---------------|----------------0-|-(0)---------------|---------5--2---0-|
B|-------------------|------------0-----|-------------------|------------------|
G|-----------------0-|-(0)--------------|-------------------|------------------|
D|-------------------|------------------|-------------------|------------------|
G|-------------------|------------------|-------------------|------------------|
D|-------------------|------------------|-------------------|------------------|
 |
D|-------------------|------------------|-------------------|------------------|
B|-------------------|---------3--------|-------------------|---------3--------|
G|-(2)-0-----------2-|-(2)-0---2--0---2-|-(2)-0-----------2-|-(2)-0---2--0---2-|
D|-(2)-0-----------2-|-(2)-0---0--0---2-|-(2)-0-----------2-|-(2)-0---0--0---2-|
G|-------0-0-0-0-0---|-------0------0---|-------0-0-0-0-0---|-------0------0---|
D|-------------------|------------------|-------------------|------------------|


D|--0----------------|----------------0-|-(0)---------------|---------5--2---7-|
B|-------------------|------------0-----|-------------------|------------------|
G|-----------------0-|-(0)--------------|-------------------|------------------|
D|-------------------|------------------|-------------------|------------------|
G|-------------------|------------------|-------------------|------------------|
D|-------------------|------------------|-------------------|------------------|
 |
D|-------------------|------------------|-------------------|------------------|
B|-------------------|---------3--------|-------------------|---------3--------|
G|-(2)-0-----------2-|-(2)-0---2--0---2-|-(2)-0-----------2-|-(2)-0---2--0---2-|
D|-(2)-0-----------2-|-(2)-0---0--0---2-|-(2)-0-----------2-|-(2)-0---0--0---2-|
G|-------0-0-0-0-0---|-------0------0---|-------0-0-0-0-0---|-------0------0---|
D|-------------------|------------------|-------------------|------------------|


D|-(7)-5-------------|
B|-------------------|
G|-------------------|
D|-------------------|
G|-------------------|
D|-------------------|
 |
D|-------------------|
B|-------------------|
G|-(2)-0-------------|
D|-(2)-0-------------|
G|-------------------|
D|-------------------|



***********************************
  |(n)  Ghost note
  | /   Slide up
  | \   Slide down
  | h   Hammer-on
  | p   Pull-off
  | b   Bend
  | r   Release
  | =   Hold bend
*********************************** 

            
            
Suggest correction
Creating personal tab
Creating personal tab
You can edit any tab online and save it as your Personal.

You can edit, replace or remove any tab part or add personal notes – all changes will be seen only by you.

Personal tabs can be accessed anytime from any device, even offline.
Learn more »
comments
print report bad tab
1 comment total.
0 reply
stevemac100 10 Dec 30, 2016 11:48 AM

Great tab - love the riff! Had been hoping someone would post this.

guest
You may want to rate the tab now too:
select rating
Wanna post a correction for this tab? Suggest correction