Oops, an error
Loading. Please wait.

I Dont Think tab

1,610 views 1 this week
no commentswrite comment
1 2 3 4 5
3 more votes to show rating
add to favorites
×
Save as Personal and add changes to this tab that will be seen only by you. Learn more ›
×
You can save this tab as Personal to edit and correct it or add notes. All changes will be seen only by you. Learn more »
launch autoscroll
font size
0
reset
how to read this tab
guitar tuner
edit
Autoscroll
slow
fast
+/-
esc
set tempo
stop
#----------------------------------PLEASE NOTE---------------------------------#
#This file is the author's own work and represents their interpretation of the #
#song. You may only use this file for private study, scholarship, or research. #
#------------------------------------------------------------------------------#
#


From MrAmeche01@aol.com Sun May  4 10:42:58 1997
Date: Wed, 26 Mar 1997 18:35:21 -0500 (EST)
From: MrAmeche01@aol.com
To: guitar@olga.net
Subject: Tab: "I Don't Think" by Dinosaur Jr

    [The following text is in the "unknown-8bit" character set]
    [Your display is set for the "US-ASCII" character set]
    [Some characters may be displayed incorrectly]

I DON^?T THINK

Dinosaur Jr. - from the LP "Hand It Over"
Transcribed by Ben Leonard (MrAmeche01@aol.com)

Main Verse:

e|---------------|-----------------|-----------------|---------|
B|---------------|-----------------|-----------------|-1--0----|
G|---------------|---4-------------|---4-------------|-0--0----|
D|-2-------------|-2---------------|-2---------------|-2--2----|
A|-2-------------|-0---0-----------|-0---0-----------|-3--3----|
E|-0-0-0-0-0-0-0-|-------0-0-0-0-0-|-------0-0-0-0-0-|---------|

Pre-Chorus:

A C G B
A C G D

Chorus:

G       Bm               C           D
I don't think too much about it

The small trill at the end of the D:
e|--------------|
B|--------------|
G|-2-2--2/0-----|
D|----------2/0-|
A|--------------|
E|--------------|

Solo:

e|-------15-------------------|-------------------------15-|
B|-15/17----17/15-15-15-15----|-13/15-12-12-15-12-15/17----|
G|-------------------------16-|----------------------------|
D|----------------------------|----------------------------|
A|----------------------------|----------------------------|
E|----------------------------|----------------------------|

|-------------------------------------------|
|-17/15-15-13/15/12-12-10-12-12-12-13-12----|
|----------------------------------------12-|
|-------------------------------------------|
|-------------------------------------------|
|-------------------------------------------|

|--------------15-----------------/19-19----|
|----------/17----17/15-15---15-------------|
|-12^?12------------------------------------|
|-------12----------------12---12-----------|
|-------------------------------------------|
|-------------------------------------------|

|-20-19-15-17/15-------------------------------|
|----------------15/17/15/13-13-12-13-12-13/15-|
|----------------------------------------------|
|----------------------------------------------|
|----------------------------------------------|
|----------------------------------------------|

I^?m not exactly a virtuoso soloist, so this may be incorrect.

            
            
Suggest correction
Creating personal tab
Creating personal tab
You can edit any tab online and save it as your Personal.

You can edit, replace or remove any tab part or add personal notes – all changes will be seen only by you.

Personal tabs can be accessed anytime from any device, even offline.
Learn more »
Give kudos to tab author, rate the tab!
1 2 3 4 5
comments
print report bad tab
guest
Wanna post a correction for this tab? Suggest correction