Oops, an error
Loading. Please wait.

I Walk For Miles Chords

436 views 30 this week
no commentswrite comment
1 2 3 4 5
3 more votes to show rating
add to favorites
launch autoscroll
font size
0
reset
transpose
0
reset
simplify chords
display chords
guitar tuner
Autoscroll
slow
fast
+/-
esc
set tempo
stop
Help us to improve Ultimate-Guitar.com Take our survey!
×
Artist: Dinosaur Jr
Song: I Walk For Miles
Album: Give A Glimpse Of What Yer Not

info: 
-song key: C#m
-riff 1 :    C#5                F#5       B5
          e-----------------------------------------------|
          B-----------------------------------------------|
          G--6--6---------------------x-x-4-4-x-x-4-4-x-x-|
          D--6--6---------------4--4--x-x-4-4-x-x-4-4-x-x-|
          A--4--4---------------4--4--x-x-2-2-x-x-2-2-x-x-|
          E-------4-4-h5-4-5-4--2--2----------------------|

-chorus G#5 & A5 palm mute          
-riff 2 :    C#5            B5               A
          e-------------------------------------0--0--0--0--0---0--0-|
          B-------------------------------------2--4--5--7--9--10--9-|
          G--6--6--------------4----------------2--------------------|
          D--6--6--------------4----------------2--------------------|
          A--4--4---4-h6-4--2--2---2-4-2-0-2-0--0--------------------|
          E----------------------------------------------------------|



[intro]
(riff1)   (x4)


[verse]
(riff1)
I walk for miles 
I came for you 
Stop for a while
I came unglued

Left get me tired
What's left to do
Left there so tired
Won't hold of you


[chorus]
G#5   A
      G#5    A
In my state
      G#5        A
In my loneliness
       G#5          A
In the only place I wait


[verse]
(riff1)
I walk for miles 
I came for you 
Stop for a while
I came unglued

Left get me tired
What's left to do
Left there so tired
Won't hold of you


[chorus]
G#5   A
      G#5    A
In my state
      G#5        A
In my loneliness
       G#5          A
In the only place I wait


[bridge]
(riff2)  C#5   B5   A
                C#5    B5    A
Set my heart is too
                C#5    B5    A
Set my beats on you


[solo]
(riff2)  C#5   B5   A  (x4)
C#5   


[verse]
(riff1)
I walk for miles 
I came for you 
I walk for miles
I came unglued

Left get me tired
What's left to do
Left there so tired
Won't hold of you


[solo]
(riff1)  (x13)
C#m

End.









Here's how I first played the song, with capo on 2nd fret:

-capo 2nd fret, all chords relative to capo
-riff 1 :    B5                 E5        A5
          e-----------------------------------------------|
          B-----------------------------------------------|
          G--4--4---------------------x-x-2-2-x-x-2-2-x-x-|
          D--4--4---------------2--2--x-x-2-2-x-x-2-2-x-x-|
          A--2--2---------------2--2--x-x-0-0-x-x-0-0-x-x-|
          E-------2-2-h3-2-3-2--0--0----------------------|

-chorus F#5 & G5 palm mute          
-riff 2 :    B5             A5               G
          e-------------------------------------3--------0--2--3--2--|
          B-------------------------------------0--2--3--------------|
          G--4--4--------------2----------------0--------------------|
          D--4--4--------------2----------------0--------------------|
          A--2--2---2-h4-2--0--0---0-2-0---0----2--------------------|
          E------------------------------3---3--3--------------------|


Suggest correction
Give kudos to tab author, rate the tab!
1 2 3 4 5
comments
print report bad tab
guest
You may want to rate the tab now too:
select rating
Wanna post a correction for this tab? Suggest correction