Oops, an error
Loading. Please wait.

In A Jar bass

version 2
version 2

Whole song

682 views 3 this week
1 commentread comment
1 2 3 4 5
2 more votes to show rating
add to favorites
×
Save as Personal and add changes to this tab that will be seen only by you. Learn more ›
×
You can save this tab as Personal to edit and correct it or add notes. All changes will be seen only by you. Learn more »
launch autoscroll
font size
0
reset
guitar tuner
backing track
0:00
0:00
edit
Autoscroll
slow
fast
+/-
esc
set tempo
stop
Author
Difficulty
-------------------------------------------------------------------------------
                             In A Jar - Dinosaur Jr.
-------------------------------------------------------------------------------
Tabbed by: TheHamWizard 
this is only my second ever tab so forgive me if i messed up with the format. constructive criticism is  
appreciated
Tuning: Standard (EADG)

G|5-5-5-4-2---------------------------------------------------------------------------------|
D|---------5-5-5-5-4-5-4------------------------------5-5-5-7-5-5-5-7-5-7-7-7-7-x-7-7-7-7-7-7|
A|----------------------7-7-7-7-0----------------7-5----------------------------------------|
E|---------------------------------7-7-7-7-7-8-8--------------------------------------------|

G|---------------------------------------------------------------------------|
D|10-10-10-9-7-----------------------------------------------2-0-------------|
A|-------------10-10-10-10-10-9-10-9-7-7-7-7-0-2-2-2-2-2-3-3-----------------|
E|---------------------------------------------------------------------------|

riff above continued
 
G|---------------------------------------------------------------------------|
D|---------------------------------------------------------------------------|
A|----------------------------7-7-7-7-7-7------------------------------------|
E|0-3-3-5-3-3-3-5-3-5-5-5-5-5-5-5-5-5-5-5------------------------------------|

Play riff below twice

G|-------------------------------------------9-9-9-9-9-9-9-------------------|
D|-12-12-12-12-12-12-12-12 10-9-10-9-7-7-7-7-7-7-7-7-7-7-7-------------------|
A|---------------------------------------------------------------------------|
E|---------------------------------------------------------------------------|

Chorus

G|---------------------------------------------------------------------------|
D|---------------------------------------------------------------------------|
A|5-5-5-5-5-5-5-5-5 3-3-3-0-1-1-1--------------------------------------------|
E|---------------------------------------------------------------------------|

G|---------------------------------------------------------------------------|
D|---------7-7-7-7-7-7-------------------------------------------------------|
A|-5-5-5-5-5-5-5-5-5-5-3-3-3-0-1-1-1-----------------------------------------|
E|---------------------------------------------------------------------------|

Let first chord ring out for a sec

G|2---2-2-2-4-2-0-2----------------------------------------------------------|
D|0---0-0-0-0-0-0-0----------------------------------------------------------|
A|------------------3-3-3-0-1-1-1--------------------------------------------|
E|---------------------------------------------------------------------------|

End of Chorus

G|---------------------------------------------------------------------------|
D|--------7-7-7-7-7-7--------------------------------------------------------|
A|5-5-5-5-5-5-5-5-5-5-3-3-3-0-1-1-1------------------------------------------|
E|---------------------------------------------------------------------------|

 Before playing the riff below play the first two riff at the beginning of the tab
 
G|---------------------------------------------------------------------------|
D|---------------------------------------------------------------------------|
A|2-2-2-3-0-2-2-2-2-2-3-0-2-2-2-3-0-2-2-2-2-2-3-0----------------------------|
E|---------------------------------------------------------------------------|

Play riff below 4 times

G{-------------------------------------------9-9-9-----------------------------}
D{------------------------11-14-11-11-9-9-9--7-7-7-----------------------------}
A{9-9-9-9-0-9-9-9-9-9-9-9-0--0--0--0--7-7-7------------------------------------}
E{-----------------------------------------------------------------------------}

"I watched you fall apart babe"

G{-----------------------------------------------------------------------------}
D{5-5-5-5-5-4-4-4-4-4-4-5-5-5-5-5----------------------------------------------}
A{5-5-5-5-5-4-4-4-4-4-4-5-5-5-5-5-----2-0-0-0-0--------------------------------}
E{--------------------------------5-4------------------------------------------}

G{-----------------------------------------------------------------------------}
D{5-5-5-5-5-4-4-4-4-4-4-5-5-5-5-5----------------------------------------------}
A{5-5-5-5-5-4-4-4-4-4-4-5-5-5-5-5-4-5-7----------------------------------------}
E{--------------------------------------0-0-0-0--------------------------------}

G{-----------------------------------------------------------------------------}
D{5-5-5-5-5-4-4-4-4-4-4-5-5-5-5-5----------------------------------------------}
A{5-5-5-5-5-4-4-4-4-4-4-5-5-5-5-5------------------------------6-5-------------}
E{--------------------------------3-4-6-4-4-4-4-5-5-5-5-5-5-6-5----------------}

Play riff below 4 times. then play it two times after the bass solo

G{-9-9-9-9-9-7-7----7-6 -------------------------------------------------------}
D{-7-7-7-7-7-5-5-7-9---7-9-----------------------------------------------------}
A{-----------------------------------------------------------------------------}
E{-----------------------------------------------------------------------------}

Bass solo

G{-----7-9-11-11-11-11-11-11-9-7---------------7-6-----------------------------}
D{-7-9--------------------------9-7-7-7-9-7-7-9---7-9--------------------------}
A{-----------------------------------------------------------------------------}
E{-----------------------------------------------------------------------------}

G{-----------------------------------------------------------------------------}
D{-----------------------------------------------------------------------------}
A{------------------2-2-2-2----------------------------------------------------}
E{0-0-0-0-0-0-1-1-1---------0-0-0-0-0-1----------------------------------------}

After the riff above fully repeat the chorus and then play below

G{5-5-5-4-2-----------------------------------------------------------------------------}
D{----------5-5-5-5-5-4-5-4-2-2-2-2-----------------------------------------------------}
A{---------------------------------0-2-2-2-3--------------------------------------------}
E{--------------------------------------------------------------------------------------}



            
            
Suggest correction
Creating personal tab
Creating personal tab
You can edit any tab online and save it as your Personal.

You can edit, replace or remove any tab part or add personal notes – all changes will be seen only by you.

Personal tabs can be accessed anytime from any device, even offline.
Learn more »
Give kudos to tab author, rate the tab!
1 2 3 4 5
comments
print report bad tab
1 comment total.
0 reply
Eddievedderman 10 Apr 18, 2017 08:31 AM

much better than the other tab

guest
You may want to rate the tab now too:
select rating
Wanna post a correction for this tab? Suggest correction