Oops, an error
Loading. Please wait.

In A Jar tab

version 3
version 3

Whole song

8,352 views 48 this week
2 commentsread comments
1 2 3 4 5
x 10
add to favorites
×
Save as Personal and add changes to this tab that will be seen only by you. Learn more ›
×
You can save this tab as Personal to edit and correct it or add notes. All changes will be seen only by you. Learn more »
launch autoscroll
font size
0
reset
how to read this tab
guitar tuner
backing track
0:00
0:00
edit
Autoscroll
slow
fast
+/-
esc
set tempo
stop
Author
[Verse] 
(open strings under the C power chord for that nice jangle):

[Figure A] 
"I'll be grazing by your window... Please come pat me on the head"
    C     G     Em    B
e|--0--|--3--|-----|-----|
B|--0--|--0--|-----|--2--|
G|--5--|--0--|-----|--4--|
D|--5--|--0--|--2--|--4--|
A|--3--|--2--|--2--|--2--|
E|-----|--3--|--0--|-----|

[Figure B]
"I just want to find out what you're nice to me for"
    C     G     Am 
e|--0--|--3--|--0--|
B|--0--|--0--|--1--|
G|--5--|--0--|--2--|
D|--5--|--0--|--2--|
A|--3--|--2--|--0--|
E|-----|--3--|-----|

[Pre-Chorus] 
(Before the change to Am, try lifting off the treble e for a nice transition.)
    D    Am 
e|--2--|--0--|
B|--3--|--1--|
G|--2--|--2--|
D|--0--|--2--|
A|-----|--0--|
E|-----|-----|

"I know you don't have the patience...to peel them off no more"

    D    Am 
e|--2--|--0--|
B|--3--|--1--|
G|--2--|--2--|
D|--0--|--2--|
A|-----|--0--|
E|-----|-----|

[Chorus]
"In a jar where you keep me...all I could do was lick your hand"
"In a jar the scars are plain to see...I hope somehow you'll know I understand" 

    D5    C     Bb 
e|--5--|--0--|--1--|
B|--3--|--0--|--3--|
G|--2--|--5--|--3--|
D|--0--|--5--|--0--|
A|--0--|--3--|--1--|
E|--x--|-----|-----|

[Verse]
[Figure A] 
"I'll be grazing by your window... Please come pat me on the head"
    C     G     Em    B
e|--0--|--3--|-----|-----|
B|--0--|--0--|-----|--2--|
G|--5--|--0--|-----|--4--|
D|--5--|--0--|--2--|--4--|
A|--3--|--2--|--2--|--2--|
E|-----|--3--|--0--|-----|

[Figure B]
"I just want to find out what you're nice to me for"
    C     G     Am 
e|--0--|--3--|--0--|
B|--0--|--0--|--1--|
G|--5--|--0--|--2--|
D|--5--|--0--|--2--|
A|--3--|--2--|--0--|
E|-----|--3--|-----|

[Figure A] 
"I'll be grazing by your window... Please come pat me on the head"
    C     G     Em    B
e|--0--|--3--|-----|-----|
B|--0--|--0--|-----|--2--|
G|--5--|--0--|-----|--4--|
D|--5--|--0--|--2--|--4--|
A|--3--|--2--|--2--|--2--|
E|-----|--3--|--0--|-----|

[Figure B]
"I just want to find out what you're nice to me for"
    C     G     Am 
e|--0--|--3--|--0--|
B|--0--|--0--|--1--|
G|--5--|--0--|--2--|
D|--5--|--0--|--2--|
A|--3--|--2--|--0--|
E|-----|--3--|-----|

[Interlude]
During "a little mooore" play this for a few bars...

   Bm
e|--2--|
B|--3--|
G|--4--|
D|--4--|
A|--2--|
E|-----|

then rapid strumming on the F#5:
 
   F#5         Fill
e|--9--|-----------------|
B|--7--|-----------------|
G|--6--|--6-9-6----6-----|
D|--0--|-------------9-7-|
A|--0--|-----------------|
E|--x--|-----------------|

[Interlude]
"I'll watch you fall apart, babe you know it....You know I'm young and stuff, babe don't blow it" 

      D    Db    D         A   D      Db    D           E
e|--------4444-----------------------4444----------------------------------------|
B|--------6666-----------------------6666----------------------------------------|
G|--7777--6666--7777-------22--7777--6666--7777----------------------------------|
D|--7777--6666--7777-----2-22--7777--6666--7777------2--22-----------------------|
A|--5555--4444--5555--2h4--00--5555--4444--5555--2h4----00-----------------------|
E|-------------------------------------------------------------------------------|

"Just unscrew the top, yeah...Pick me up"

      D    Db    D              F5    E5
e|--------4444-------------------------------|
B|--------6666-----------------6666--5555----|
G|--7777--6666--7777-------5b--5555--4444----|
D|--7777--6666--7777-----2-----0000--0000----|
A|--5555--4444--5555--2h4--------------------|
E|-------------------------------------------|
     A E5 D5
e|-----------------------------------------|
B|--------3-------3-2---2------------------|
G|--22--4-2--2-4------2--------------------|
D|--22--2----------------------------------|
A|--00-------------------------------------|
E|-----------------------------------------|

[Solo] 
e|--/---------------------------------------------------------|
B|--/9b--r9---------------------------------------------------|
G|--/------9~~-----7-6-----------7p6h7p6h7///9wwww------------|
D|--/----------9-7-----7-----9-7------------------------------|
A|--/--------------------9-7----------------------------------|
E|------------------------------------------------------------|

e|---------------------14--14--14-17b--r-14-----------------------------|
B|////14-12-14-15-14-15--15--15------------17-15~~~b-r------------------|
G|----------------------------------------------------------------------|
D|----------------------------------------------------12wwwwwwwwwwwwwww-|
A|----------------------------------------------------------------------|
E|----------------------------------------------------------------------|

  Em       F#5  G        Em      F
e|------------------------------------|
B|------------------------------------|
G|------------------------------------|
D|-2-2-2-2-4-4-5-5-5-5-2-2-2-2-2-3----|
A|-2-2-2-2-4-4-5-5-5-5-2-2-2-2-2-3----|
E|-0-0-0-0-2-2-3-3-3-3-0-0-0-0-0-1----|

[Chorus]
[Figure A] 
"I'll be grazing by your window... Please come pat me on the head"
    C     G     Em    B
e|--0--|--3--|-----|-----|
B|--0--|--0--|-----|--2--|
G|--5--|--0--|-----|--4--|
D|--5--|--0--|--2--|--4--|
A|--3--|--2--|--2--|--2--|
E|-----|--3--|--0--|-----|



************************************

| x  Dead note
| h  Hammer-on
| b  Bend
| /  Slide up
| r  Release
| p  Pull-off
| ~  Vibrato

************************************

            
            
Suggest correction
Creating personal tab
Creating personal tab
You can edit any tab online and save it as your Personal.

You can edit, replace or remove any tab part or add personal notes – all changes will be seen only by you.

Personal tabs can be accessed anytime from any device, even offline.
Learn more »
comments
print report bad tab
2 comments total.
0 reply
darchole 31 Mar 22, 2013 12:44 AM

Sick tab man Kudos too you

0 reply
Cornywang 35 Feb 20, 2016 01:13 PM

excellent, FAVED!

guest
You may want to rate the tab now too:
select rating
Wanna post a correction for this tab? Suggest correction