Oops, an error
Loading. Please wait.

Keeblin intro tab

version 1
version 1

Intro

  • There are a couple of big fret jumps but those sec... Show more

Whole song

64 views 9 this week
2 commentsread comments
1 2 3 4 5
1 last vote to show rating
add to favorites
×
Save as Personal and add changes to this tab that will be seen only by you. Learn more ›
×
You can save this tab as Personal to edit and correct it or add notes. All changes will be seen only by you. Learn more »
launch autoscroll
font size
0
reset
how to read this tab
guitar tuner
edit
Autoscroll
slow
fast
+/-
esc
set tempo
stop
Author
Difficulty
About this tab version
There are a couple of big fret jumps but those sections are easier to play where they are tabbed, I found. Was this info helpful? Yes No
[Intro]
e|-------------------|--------------------------------------|
B|--6----------------|--------------------------------------|
G|--5fb------12/15\--|----------------------------------3---|
D|-------------------|-7h8p7h8~~-7h8p7~-7\--0h3-3p0-3h5--h5-|
A|-------------------|--------------------------------------|
E|-------------------|--------------------------------------|

e|---------------6----5-5--|--------------------------|--6----------------------------3--|
B|-----6---6-8-6-----------|-6-6--fb--6--4p3----------|----6------------------------3----|
G|-5/7---7-----------------|-----------------5-5fb----|------5fbrp3h5p3-3-0-3-3-0-3-3----|
D|-------------------------|--------------------------|----------------------------------|
A|-------------------------|--------------------------|----------------------------------|
E|-------------------------|--------------------------|----------------------------------|

e|------------6~~--5h6--5-5~~-|---------------------------------------------------------------|
B|--3---3\1-------------------|---------------------------------------------------13fb--13-11-|
G|--3---3---3-----------------|-10-10-10-10-10-10-10-10-10-10-10-10~~--g10/12--10-------------|
D|----------------------------|---------------------------------------------------------------|
A|----------------------------|---------------------------------------------------------------|
E|----------------------------|---------------------------------------------------------------|

e|--13fb--r--11-10---11-10~----|-18fb--18-15-----------------------------------|
B|-----------------------------|-------------18fbr-16p15-16p15-----------18----|
G|-----------------------------|-------------------------------17-15--------15-|
D|-----------------------------|-----------------------------------------------|
A|-----------------------------|-----------------------------------------------|
E|-----------------------------|-----------------------------------------------|

e|---------------------------------------------------|-------------------------------------------------------|
B|-18fbr---------------------------------------------|-------------------------------------------------------|
G|-------15-14----14---------------------------------|-----3-3--g3h5-3---3~~-----2h3p2h3p2h3p2------3-5hbr-3-|
D|-------------15----15-15\12-12-12---h13p12h13-12\3-|-3/5-----5------(5)----------------------3/5-----------|
A|---------------------------------------------------|-------------------------------------------------------|
E|---------------------------------------------------|-------------------------------------------------------|
                                                                      PM
    (hold bend)                         harmonics
e|--------------------------------------------v-----------------|
B|--------------------------------------------4---3-4--/10--10--|
G|-5fb---5~~~--5fbrp3p0-3-3-2~~-------2-2-----------------------|
D|-^-----------^------------------3-3-----3---------------------|
A|-^-----------^------------------------------------------------|
E|-^-----------^------------------------------------------------|
   ^ harmonics ^

e|--------------------------------------------------------|
B|--10h11--11-11\8--8-8/10-10-10\6---6~~~~~-\3h4p3~~-\----|
G|--------------------------------------------------------|
D|--------------------------------------------------------|
A|--------------------------------------------------------|
E|--------------------------------------------------------|



************************************

| /    Slide up
| \    Slide down
| h    Hammer-on
| p    Pull-off
| ~    Vibrato
| g    Grace note
| r    Release
| (n)  Ghost note

************************************

            
            
Suggest correction
Creating personal tab
Creating personal tab
You can edit any tab online and save it as your Personal.

You can edit, replace or remove any tab part or add personal notes – all changes will be seen only by you.

Personal tabs can be accessed anytime from any device, even offline.
Learn more »
Give kudos to tab author, rate the tab!
1 2 3 4 5
comments
print report bad tab
2 comments total.
0 reply
th3no0b 10 Mar 23, 2017 04:36 PM

Been looking for this for ages, thanks!

0 reply
DropDeee 4,141 Mar 23, 2017 11:28 PM

Glad it can be of use to you :)   Enjoy!

guest
You may want to rate the tab now too:
select rating
Wanna post a correction for this tab? Suggest correction