Oops, an error
Loading. Please wait.

Lost All Day Chords

127 views 6 this week
no commentswrite comment
1 2 3 4 5
x 3
add to favorites
launch autoscroll
font size
0
reset
transpose
0
reset
simplify chords
display chords
guitar tuner
Autoscroll
slow
fast
+/-
esc
set tempo
stop
Help us to improve Ultimate-Guitar.com Take our survey!
×
Artist: Dinosaur Jr
Song: Lost All Day
Album: Give A Glimpse Of What Yer Not


info:
-song key: G
-all C chords are Cadd9
-Riff in intro & chorus:
 (strum chords with notes)
      G6            Cadd9        G6            Cadd9
  e---0--0--0--0--0--0-------0-0--0--------------0-0------------
  B---0--0--0--1--3--3-------3-0--0--0--0--1--3--3---3-1--0-1-3-
  G---0--0--0--0--0--0-------0-0--0--------------0--------------
  D---0--------------2------------0--------------2--------------
  A---2--------------3------------2--------------3--------------
  E---3---------------------------3-----------------------------


      G6            Cadd9         Am            Cadd9            Am            Cadd9
  e---0--0--0--0--0--0---------------------------0-0-------------0--------------0--0---------
  B---0--0--0--1--3--3--3------------0--0--1--3--3---3-1--0-1-3--1--0--0--1--3--3----3-1---0-
  G---0--0--0--0--0--0--0---------2--2-----------0---------------2--------------0------------
  D---0--------------2--2---------2--2-----------2---------------2--------------2------------
  A---2--------------3------3--2--0--------------3---------------0--------------3------------
  E---3--------------------------------------------------------------------------------------
                                                 \___________________________/
                                                   not in intro, only chorus
-B5,C5 & G in verse palm mute




[intro]
G    C    G    C    
G    C    Am   C


[chorus]
G    C    G    C     
G   C              Am    C
 Oh baby what went wrong
Am       C           G    C    G    C   
 You and me, you and me
G   C            Am    C  
 Oh baby way too long
Am       C           G    C    G    C    G    C
 You and me, you and me
Am       C    
 You and me, you and 


[verse]
B5
me 
               C5
I can't take myself
               G
I can't take a reason
          Em
I make it hell

B5                  C5
 I've been lost all day
                  G
I've been gone forever
         Em
Should I say?


[chorus]
G    C    G    C
G   C              Am    C
 Oh baby what went wrong
Am       C           G    C    G    C
 You and me, you and me
G   C             Am    C
 Oh baby gone too long
Am       C           G    C    G    C    G    C
 You and me, you and me
Am       C
 You and me, you and 


[verse]
B5
me
                C5
I don't know my way
                  G
I don't trust the reasons
           Em
For you to stay

B5              C5
 I don't take myself
                G
I don't take it easy
        Em
Nothing helps


[bridge]
C      D
 On my block
       Am
I gave everything
         D
Wouldn't stop

Am     D
 On my street
       C
I left everyone

On my 


[chorus]
G    C    G    C
knee
G   C              Am    C
 Oh baby what went wrong
Am       C           G    C    G    C   
 You and me, you and me
G   C             Am    C
 Oh baby one more song
Am       C           G    C    G    C    G    C
 You and me, you and me
Am       C           Am    C
 You and me, you and me
        G    C    G    C    G    C
You and me
Am   C    Am   C
G    C    G    C    G    C
Am   C    Am   C   
G













Suggest correction
Give kudos to tab author, rate the tab!
1 2 3 4 5
comments
print report bad tab
guest
You may want to rate the tab now too:
select rating
Wanna post a correction for this tab? Suggest correction