Oops, an error
Loading. Please wait.

Plans tab

version 1
version 1

Whole song

6,607 views 6 this week
2 commentsread comments
1 2 3 4 5
x 4
add to favorites
×
Save as Personal and add changes to this tab that will be seen only by you. Learn more ›
×
You can save this tab as Personal to edit and correct it or add notes. All changes will be seen only by you. Learn more »
launch autoscroll
font size
0
reset
how to read this tab
guitar tuner
edit
Autoscroll
slow
fast
+/-
esc
set tempo
stop
Author
artist: dinosaur jr
song: plans
tabbed by: batesyy

this is only the basic chords, none of the arpeggio stuff tabbed.
plus only one of the short solos tabbed. i hope you can improvise :)

/intro

|----------|
|----------|
|----------|
|----------|
|-6~---8~--|
|-4~---6~--|

/verse

|--------------------------|
|--------------------------| x3
|--------------------------|
|-----------------8------8-|then:
|-10------6-------6------5-|
|-8-------4----------------|

|----------------------------------------|
|----------------------------------------|
|----------------------------8-7---8-7---|
|-----------------8--------------8-----8-|
|-10------6-------6-------8--------------|
|-8-------4---------------6--------------|

/chorus

|----------------------------|
|----------------------------|
|----------------------------|
|----------------5-8---------|
|-3-------6------6-6-------8-|
|-1-------4------4---------6-|

/first solo

|--------------------------------------------------------------15-16-15----|
|-------------------------------------------11-----11--17b~-17---------17b-|
|-10b~---10b~-8h10p8s7------------10b~--10b----10b-------------------------|
|---------------------------8h10-------------------------------------------|
|----------------------8h10------------------------------------------------|
|--------------------------------------------------------------------------|

/bridge

|------------------|
|------------------|
|------------------| palm mute c
|-5----------------| x2 then:
|-3------3------6--|
|--------1------4--|

|-----------|
|-----------|
|-----------| then back to intro
|--8----10--|
|--6----8---|
|-----------|
Suggest correction
Creating personal tab
Creating personal tab
You can edit any tab online and save it as your Personal.

You can edit, replace or remove any tab part or add personal notes – all changes will be seen only by you.

Personal tabs can be accessed anytime from any device, even offline.
Learn more »
comments
print report bad tab
2 comments total.
0 reply
Satius Cain 10 Dec 27, 2009 06:08 AM

I watched this song on youtube and it looks like he has a capo on the 8th fret.

+1 reply
batesyy 1,202 Feb 25, 2010 06:21 AM

you rated this 1/5 because you can't transpose? thanks.

guest
You may want to rate the tab now too:
select rating
Wanna post a correction for this tab? Suggest correction