Oops, an error
Loading. Please wait.

Said The People tab

version 2
version 2

Whole song

1,476 views 3 this week
no commentswrite comment
1 2 3 4 5
1 last vote to show rating
add to favorites
×
Save as Personal and add changes to this tab that will be seen only by you. Learn more ›
×
You can save this tab as Personal to edit and correct it or add notes. All changes will be seen only by you. Learn more »
launch autoscroll
font size
0
reset
how to read this tab
guitar tuner
edit
Autoscroll
slow
fast
+/-
esc
set tempo
stop
Dinosaur Jr.
Said The People
Songwriter: J Mascis
From the album: Farm (2009)
_______________

CAPO: 7th fret
_______________

Main riff:

E--0-(r-i-n-g)-----------------|---------------------------------|
B--1-(r-i-n-g)--1/3--1--0--0---|-------------------1/3--1--0--0--|
G--2-(r-i-n-g)--2/4--2--0--0---|-------------------2/4--2--0--0--|
D--2-(r-i-n-g)-------------2---|------------------------------2--|
A--0-(r-i-n-g)-------------3---|-------0-2-0------------------3--|
E-------------------------(3)--|-0--3------------------------(3)-|

(Note:Full A minor chord only gets played the first time through the progression)

Verse: ("I've been staring, I've been staring...")

E--0----0----1-----0----0---------|
B--1----1----3-----1---/3---------|
G--2----0----2-----2---/4---------|
D--2----2----0-----3---/5---------|
A--0----3-------------------------|
E---------------------------------|

  Am    C    Dm   Fmaj7 G

Pre-Chorus: ("Of all the people, all the people to let me down...")

E--0-----0-----------1--------|
B--1-----1-----0-----3--------|
G--2-----0-----0-----2--------|
D--3-----2-----0-----0--------|
A--------3-----2--------------|
E--------------3--------------|

 Fmaj7   C     G     Dm

Chorus: ("Save me, save me...")


E--3-----0-----3-----1--------|
B--1-----1-----3-----3--------|
G--2-----0-----0-----2--------|
D--3-----2-----0-----0--------|
A--------3-----2--------------|
E--------------3--------------|

 Fmaj7   C     G     Dm

------------------------------------------------

Lyrics:

I've been staring, I've been staring into space
Always tired, not a smile, such a waste
I don't wanna, I don't wanna know
I can't tell you, I just have to go

Of all the people, all the people to let me down
Of all the people, all the people, why now?

Save me, save me
Save me, save me

Bring me something, bring me something I can use
Well here's one thing, but it's not the one I'd choose
I can't help it, hope you show up soon
I can't help it, I'm counting on you

Of all the people, all the people to let me down
Of all the people, all the people, why now?

Save me, save me
Save me, save me

Can you tell me, can you tell me what went wrong?
Guess I should've seen it coming all along
Gotta fight it, I've gotta be strong
Gotta be something, can't let it drag on and on

Of all the people, all the people to let me down
Of all the people, all the people, why now?

Save me, save me
Save me, save me
Suggest correction
Creating personal tab
Creating personal tab
You can edit any tab online and save it as your Personal.

You can edit, replace or remove any tab part or add personal notes – all changes will be seen only by you.

Personal tabs can be accessed anytime from any device, even offline.
Learn more »
Give kudos to tab author, rate the tab!
1 2 3 4 5
comments
print report bad tab
guest
You may want to rate the tab now too:
select rating
Wanna post a correction for this tab? Suggest correction