Oops, an error
Loading. Please wait.

See You tab

version 2
version 2

Whole song

15,950 views 27 this week
5 commentsread comments
1 2 3 4 5
x 20
add to favorites
×
Save as Personal and add changes to this tab that will be seen only by you. Learn more ›
×
You can save this tab as Personal to edit and correct it or add notes. All changes will be seen only by you. Learn more »
launch autoscroll
font size
0
reset
how to read this tab
guitar tuner
edit
Autoscroll
slow
fast
+/-
esc
set tempo
stop
Dinosaur Jr. - See You
From the album 'Farm' (2009)

Capo 5th fret, standard tuning

Order:
Riff A x8
Riff B x2
Riff A x4
Riff B x4
Riff C x6
Riff B x2
Riff A x4
Riff B x4
Riff C x6
Riff D x4 (end on C chord)


==riff A
(relative to capo)
E|------3x3--0------3x3-------------0-----3--0--------0-----3-3/5-0--|
B|------1x1--1------0x0---0-1---------1-----------------1------------|
G|------0x0---------0x0-----------2-----2-----------2-----2----------|
D|------2x2---------0x0---------3-----------------3------------------|
A|--3-3-------------2x2----------------------------------------------|
E|--------------3-3--------------------------------------------------|


==solo 1 (0:10)
E|--17-18-18s20~--20b-20-20-20---18h20p18p17---17-17h18p17--17---------|
B|--------------------------------------------------------18--18b-18~--|
G|---------------------------------------------------------------------|
D|---------------------------------------------------------------------|
A|---------------------------------------------------------------------|
E|---------------------------------------------------------------------|
|
E|------------------------------------------------------------|
B|-17s15-s13-13-13-13-13-13-13-13-11-10-11-10--------13-------|
G|--------------------------------------------12b-12b--12b~~--|
D|------------------------------------------------------------|
A|------------------------------------------------------------|
E|------------------------------------------------------------|
|
E|----------------------------------------------------------------|
B|----------------------------------s11p10--11--------------------|
G|------10h12p10---10-12-12b-10s12~-------10--10s12s10-10s9-9-----|
D|-10h12--------h12-------------------------------------------10--|
A|----------------------------------------------------------------|
E|----------------------------------------------------------------|
|
E|---------------------------------------------------|
B|------------------------------13-15p13---13p11-11--|
G|-------9-10--9h10p9----9-10s14--------14-----------|
D|--10h12-------------10-----------------------------|
A|---------------------------------------------------|
E|---------------------------------------------------|
|
E|-----------------13-------13---------------------------------------------|
B|--10-11-11b-r-10----10s11----11s10---------------------------------------|
G|------------------------------------10h12p10-12b-10----10h12p10---10-10--|
D|----------------------------------------------------12---------h12-------|
A|-------------------------------------------------------------------------|
E|-------------------------------------------------------------------------|
|
E|------------------------------------------------|
B|------------------------------------------------|
G|-10s9-9-----------------------------------------|
D|--------10--10-12-12b-12b-10----10-10-----------|
A|-----------------------------12-------12--13-12-|
E|------------------------------------------------|
|
E|----------------------------------------------|
B|--------------------------------17-17-17------|
G|------------------19-----17-19----------17~~--|
D|--------------------17s19---------------------|
A|-13s17-s15s19s20------------------------------|
E|----------------------------------------------|
|
solo ends with some wierd noise that i can't really replicate. closest I can get is this:
E|---------------15s(slide up high as possible)--|
B|--18(whammy dive)------------------------------|
G|-----------------------------------------------|


==riff B (1:26)
(relative to capo)
E|---0-0-0-0-0-0-0-0---x-xxx-0-xxx-0--|
B|--3-3-3-3-3-3-3-3-3--x-xxx-1-xxx-1--|
G|---------------------x-xxx-2-xxx-2--|
D|---------------------------3--------|
A|------------------------------------|
E|------------------------------------|


==riff C (2:39)
(relative to capo)
E|---------0h1-0---0----------------------------------|
B|-----1h3------h3---3-1h3-----1---0-x-1---0-x-1---0--|
G|-------------------------x-x-0h2-0-x-0h2-0-x-0h2-0--|
D|-----------------------------3---0-x-3---0-x-3---0--|
A|-3-3------------------------------------------------|
E|----------------------------------------------------|


=riff D (4:54 onwards)
(relative to capo)
E|------------3---0------0-0h1-0---0-----------3---0--0h3p0--0h3p0--0h3p0------|
B|-1--1--1-1--0---1--1-3---------3----1--1-1---0---1---------------------h3-1--|
G|-2--2--2-2--0---0-------------------2--2-2---0---0---------------------------|
D|-2--2--2-2--0---2-------------------2--2-2---0---2---------------------------|
A|------------2---3----------------------------2---3---------------------------|
E|------------3--------------------------------3-------------------------------|

==solo 2 (5:12)
E|----------------------17h20p17-20b-20-17--------------------------------------|
B|--17h18-18s20-20b-20b--------------------20b--18h20p18-17h18p17--15-15s13-13--|
G|------------------------------------------------------------------------------|
D|------------------------------------------------------------------------------|
A|------------------------------------------------------------------------------|
E|------------------------------------------------------------------------------|
|
| (gradually bend to pitch of 17th fret across *these* 3 notes)
E|---------------------------------------13-15-(*15b-15b-15b*)r-13----13-------|
B|-----------------------------s11-10--15---------------------------15---15b~--|
G|-s9~-9h10p9-------9h10-9s12~-------------------------------------------------|
D|-----------h10-12------------------------------------------------------------|
A|-----------------------------------------------------------------------------|
E|-----------------------------------------------------------------------------|
|
E|-13-12-----------------------------------------------------------------|
B|-------13~--10h13p10~-10h13p10-10--10h11-10---------10h11-11-----------|
G|--------------------------------------------12-10h12---------12b-10~~--|
D|-----------------------------------------------------------------------|
A|-----------------------------------------------------------------------|
E|-----------------------------------------------------------------------|


The solo parts are probably quite hard to figure out from here, it's best to slow the 
down and listen out for the notes, there's a few where they're played too quick to be 
obvious.

|--------------------------------------------------------
|p - pull-off
|h - hammer-on
|s - slide
|b - bend; release bend before next note, unless...
|r - release bend after holding it for a little
|~ - vibrato
|x - muted string strum
|--------------------------------------------------------

            
            
Suggest correction
Creating personal tab
Creating personal tab
You can edit any tab online and save it as your Personal.

You can edit, replace or remove any tab part or add personal notes – all changes will be seen only by you.

Personal tabs can be accessed anytime from any device, even offline.
Learn more »
comments
print report bad tab
5 comments total. Showing first comments.
0 reply
olliemuch 10 Feb 01, 2010 12:41 PM

I haven’t attempted to solos yet but riffs sound perfect to me. Its great to find an accurate dino jr tab, thanks. Five star

+1 reply
djsranger 198 Jun 29, 2014 05:19 PM

Great tab - really accurate when you get the timing down right. Awesome job!! I think this is one of j's best composed works. Beautiful how it flows together.

+1 reply
AComerford 12 Mar 19, 2017 05:14 PM, edited at 09:16 pm

Amazing tab, but I'm like 90% sure that riff C should be an F and not an Am.
e.g.
1 1
0h2 0
3 3

guest
You may want to rate the tab now too:
select rating
Wanna post a correction for this tab? Suggest correction