Oops, an error
Loading. Please wait.

Tarpit bass

943 views 21 this week
3 commentsread comments
1 2 3 4 5
x 5
add to favorites
×
Save as Personal and add changes to this tab that will be seen only by you. Learn more ›
×
You can save this tab as Personal to edit and correct it or add notes. All changes will be seen only by you. Learn more »
launch autoscroll
font size
0
reset
guitar tuner
edit
Autoscroll
slow
fast
+/-
esc
set tempo
stop
Author
-------------------------------------------------------------------------------
                              Tarpit-Dinosaur jr
-------------------------------------------------------------------------------
Tabbed by: TheHamWizard
xs=dead notes
Ive been a  bit disappointed with the lack of dinosaur bass tabs online so i'll be 
putting a few up here.
Tuning:Standard (EADG)
Intro
G|------------------------------------------7777--------3-3-3-3-3-3-3----|
D|------------------------------------5-x---------------2-2-2-2-2-2-2----|
A|-----------------------------------------------------------------------|
E|-1-1-1--------1-1-1------1-1-1-----------------------------------------|
Main riff
G|--7-7-7-7-7-x-x-7-7-7-7-7-7--5-5-5-5-5-x-x-5-5-5-5-5-5--|
D|--5-5-5-5-5-x-x-5-5-5-5-5-5--3-3-3-3-3-x-x-3-3-3-3-3-3--|
A|--------------------------------------------------------|
E|--------------------------------------------------------|
"Stay inside,pull me out of space"
G|-------------------------------------------------------------|
D|-------------------------------------------------------18----|
A|-8-x-8-x-8---8-8-8-8-8-8---7-x-7-x-7---7-7-7-7-7-7---17--17--|
E|-------------------------------------------------------------|

            
            
Suggest correction
Creating personal tab
Creating personal tab
You can edit any tab online and save it as your Personal.

You can edit, replace or remove any tab part or add personal notes – all changes will be seen only by you.

Personal tabs can be accessed anytime from any device, even offline.
Learn more »
comments
print report bad tab
3 comments total.
0 reply
TheHamWizard 57 Nov 27, 2015 07:56 PM

sorry i forgot to add the part after the first riff that leads into the main riff. D{ 7-7-7-7-9}

0 reply
emmett1999 10 Mar 20, 2016 09:43 AM

Thank you very much, always good to see Dinosaur Jr bass tabs.

0 reply
TheHamWizard 57 Dec 10, 2016 05:53 PM

Yo this is the guy who wrote this tab as well as the in a jar v2 bass tab. Just wanna say both tabs have a few errors here and there that i intend to fix soon.

guest
You may want to rate the tab now too:
select rating
Wanna post a correction for this tab? Suggest correction