Oops, an error
Loading. Please wait.

Tarpit tab

version 1
version 1

Whole song

9,988 views 27 this week
2 commentsread comments
1 2 3 4 5
x 8
add to favorites
×
Save as Personal and add changes to this tab that will be seen only by you. Learn more ›
×
You can save this tab as Personal to edit and correct it or add notes. All changes will be seen only by you. Learn more »
launch autoscroll
font size
0
reset
how to read this tab
guitar tuner
edit
Autoscroll
slow
fast
+/-
esc
set tempo
stop
Author
Difficulty
Dinosaur Jr.
"Tarpit"
from the album 'You're Living All Over Me'

this is one of my favourite songs ever. and it's very easy. i've tried my best on the
lyrics, so they may not be 100% correct as it's hard to hear J on some parts in this
song.

Intro
e|----------------------------|
B|----------------------------|
G|----------------------------| x4
D|-11-11-11-12-12-12-12-7-7-7-|
A|-0--0--0--0--0--0--0--0-0-0-|
E|----------------------------|

---------5-5-XXX      -------|
-7-7-7-7-5-5-XXX      -------|
-6-6-6-6-6-6-XXX  x3  -4-4/6-|
----------------      -2-2/4-|
----------------      -------|
----------------      -------|

Verse - just G and C chords repeated. start with a clean sound, then eventually add 
and a heavy wah sounds which ends the song is chaotic noise.

-3-      -0-|
-3-      -1-|
-0- x10  -0-| x10
-0-      -2-|
-2-      -3-|
-3-      ---|

Outro - use that heavy wah sound.
----      ---|
----      ---|
-10- x10  -9-|  x10
-10-      -9-|
-8--      -7-|
----      ---|

Paved my Fate
Paved my Fate
Paved my Fate
Paved my Fate...

            
            
Suggest correction
Creating personal tab
Creating personal tab
You can edit any tab online and save it as your Personal.

You can edit, replace or remove any tab part or add personal notes – all changes will be seen only by you.

Personal tabs can be accessed anytime from any device, even offline.
Learn more »
comments
print report bad tab
2 comments total.
+2 reply
LargeReptileSnr 50 Oct 14, 2012 09:27 AM

Minor correction, J plays the intro like this: (you can see it in this video http://youtu.be/TYDIH_H43yE)

e|----------------------------|
B|----------------------------|
G|-6--6--6--7--7--7--2-2-2----|
D|-7--7--7--7--7--7--2-2-2-|
A|-0--0--0--0--0--0--0-0-0--|
E|----------------------------|

0 reply
Qwuarter 10 Mar 19, 2013 08:07 AM

Yea, because of his little bit "punky" playing style, and their lo-fi its sometimes really hard to recognize the chordz :D

guest
You may want to rate the tab now too:
select rating
Wanna post a correction for this tab? Suggest correction