Oops, an error
Loading. Please wait.

Tarpit tab

version 2
version 2

Whole song

622 views 12 this week
no commentswrite comment
1 2 3 4 5
2 more votes to show rating
add to favorites
×
Save as Personal and add changes to this tab that will be seen only by you. Learn more ›
×
You can save this tab as Personal to edit and correct it or add notes. All changes will be seen only by you. Learn more »
launch autoscroll
font size
0
reset
how to read this tab
guitar tuner
edit
Autoscroll
slow
fast
+/-
esc
set tempo
stop
Author
Difficulty
Artist: Dinosaur Jr.
Album: You're Living All Over Me
Year: December 1987
Tabbed by: Cole Beldia 

[Intro 1]

e|--------------------------------------------------------|
B|--------------------------------------------------------|
G|-----6-6-6-7-7-7-7-x-2-2-2------------------------------|x4
D|-----4-4-4-4-4-4-4-x-2-2-2------------------------------|
A|-----0-0-0-0-0-0-0-x-0-0-0------------------------------|
E|--------------------------------------------------------|


[Intro 2]

e|---9-x--9-x-10--10-x-x-x-x-x-x--------------------------|
B|--10-x-10-x--9---9-x-x-x-x-x-x--------------------------|
G|--11-x-11-x--------x-x-x-x-x-x--------------------------|x3
D|--------------------------------------------------------|
A|--------------------------------------------------------|
E|--------------------------------------------------------|

End of Intro:

e|-------------------------------|
B|-------------------------------|
G|--------4-4-4/7----------------|x1
D|--------4-4-4/7----------------|
A|-------------------------------|
E|-------------------------------|


[Verse]

"Hey, what's bubbling down under there? Why's it screaming? What's unfair?"
e|---------------------------------------------------------|
B|---------------------------------------------------------|
G|------------------5-5-5-5-5-5-5-5------------------------|
D|--5-5-5-5-5-5-5-5-5-5-5-5-5-5-5-5------------------------|
A|--5-5-5-5-5-5-5-5----------------------------------------|
E|---------------------------------------------------------|


[Chorus]

On the fourth time, end it with a C with strings E & B open instead of
E on the 7th.

"Stay inside, pull me out of space. Tread me sprinkling grace."

e|------------------------------------|
B|---1-1-1-1-1-1-1-1------------------|
G|---2-2-2-2-2-2-2-2------------------|x3
D|---3-3-3-3-3-3-3-3/9-9-9-9-9-9-9-9--|
A|---3-3-3-3-3-3-3-3/7-7-7-7-7-7-7-7--|
E|------------------------------------|

e|--0--0--0---------|
B|--0--0--0---------|
G|--5--5--5---------|
D|--5--5--5---------|
A|--3--3--3---------|
E|------------------|


[Verse 2]

e|---------------------------------------------------------|
B|---------------------------------------------------------|
G|------------------5-5-5-5-5-5-5-5------------------------|
D|--5-5-5-5-5-5-5-5-5-5-5-5-5-5-5-5------------------------|
A|--5-5-5-5-5-5-5-5----------------------------------------|
E|---------------------------------------------------------|


[Chorus 2]

e|------------------------------------|
B|---1-1-1-1-1-1-1-1------------------|
G|---2-2-2-2-2-2-2-2------------------|x3
D|---3-3-3-3-3-3-3-3/9-9-9-9-9-9-9-9--|
A|---3-3-3-3-3-3-3-3/7-7-7-7-7-7-7-7--|
E|------------------------------------|

e|--0--0--0---------|
B|--0--0--0---------|
G|--5--5--5---------|
D|--5--5--5---------|
A|--3--3--3---------|
E|------------------|


[Verse 3/Outro]

Exact same thing as verse except this time it has Wah and
gain (lots of 'em).

"Pave my faith, pave my faith, Pave my faith and pave my faith"
e|---------------------------------------------------------|
B|---------------------------------------------------------|
G|------------------5-5-5-5-5-5-5-5------------------------|
D|--5-5-5-5-5-5-5-5-5-5-5-5-5-5-5-5------------------------|
A|--5-5-5-5-5-5-5-5----------------------------------------|
E|---------------------------------------------------------|



************************************

| x  Dead note
| /  Slide up

************************************
Suggest correction
Creating personal tab
Creating personal tab
You can edit any tab online and save it as your Personal.

You can edit, replace or remove any tab part or add personal notes – all changes will be seen only by you.

Personal tabs can be accessed anytime from any device, even offline.
Learn more »
Give kudos to tab author, rate the tab!
1 2 3 4 5
comments
print report bad tab
guest
You may want to rate the tab now too:
select rating
Wanna post a correction for this tab? Suggest correction