Oops, an error
Loading. Please wait.

The Lung tab

version 1
version 1

Whole song

  • Everything except solo based off this video: https... Show more
1,393 views 6 this week
5 commentsread comments
1 2 3 4 5
x 4
add to favorites
×
Save as Personal and add changes to this tab that will be seen only by you. Learn more ›
×
You can save this tab as Personal to edit and correct it or add notes. All changes will be seen only by you. Learn more »
launch autoscroll
font size
0
reset
how to read this tab
guitar tuner
edit
Autoscroll
slow
fast
+/-
esc
set tempo
stop
Author
-------------------------------------------------------------------------------
                             THE LUNG - Dinosaur jr.
-------------------------------------------------------------------------------
Tabbed by:
E-mail:

Tuning:
                              F (kinda)
e|-----------------[---3--3--0-0-0-0--3--3--0-0-0-0--3--3--0-0-0-0-----------|
B|----2------------[---1--1--1-1-1-1--1--1--1-1-1-1--1--1--1-1-1-1-----------|
G|----2---x16------[---2--2--2-2-2-2--2--2--2-2-2-2--2--2--2-2-2-2-----------|
D|----0------------[---3--3--3-3-3-3--3--3--3-3-3-3--3--3--3-3-3-3-----------|
A|-----------------[---------------------------------------------------------|
E|-----------------[---------------------------------------------------------|
                             C            Try add some triplets in between chords 
e|--------------0-------0--0-0--0--0-0-0-----------]-------------------------|
B|---0-0-0-1-3----------1--1-1--1--1-1-1-----------]-------------------------|
G|----------------------0--0-0--0--0-0-0-----------]-----x4------------------|
D|----------------------2--2-2--2--2-2-2-----2--2--]-------------------------|
A|----------------------3--3-3--3--3-3-3-----2--2--]-------------------------|
E|-------------------------------------------0--0--]-------------------------|
         arpeggio C                                        G         more arpeggio C
e|--------------------------------------------------------3-3--------------------------0---|
B|----------0-------------0-1-0-------------0-------------0-0--------------0-------------0-|
G|----0---0--0------0---0-------------0-------0-----0-----0-0-------0--------0----0--------|
D|---2--2---------2---2-------------2---2---------2---2---0-0----2------2-------2----2-----|
A|--3-----------3-----------------3-------------3---------2-2---3-----3-------3----3-------|
E|--------------------------------------------------------3-3------------------------------|
     Emin  C                          let ring---------)     forget the last C the 4th time
e|-[-0-0-0--0--0-0-0--0-0-0--0--0-0-0--0----------------]---------------------|
B|-[-0-0-0--1--3-3-3--0-0-0--1--3-3-3--1----------------]---------------------|
G|-[-0-0-0--0--0-0-0--0-0-0--0--0-0-0--0----------------]--x4-----------------|
D|-[-2-2-2--2--2-2-2--2-2-2--2--2-2-2--2----------------]---------------------|
A|-[-2-2-2--3--3-3-3--2-2-2--3--3-3-3--3----------------]---------------------|
E|-[-0-0-0------------0-0-0-----------------------------]---------------------|

          even more arpeggios
e|----------------------------------------------------------------------------|
B|----------0-------------0-1-0-------------0---------------------------------|
G|----0---0--0------0---0-------------0-------0-----0-------------------------|
D|---2--2---------2---2-------------2---2---------2---2-----------------------|
A|--3-----------3-----------------3-------------3-----------------------------|
E|----------------------------------------------------------------------------|

VERSE    G     D      C   you can do this while playing full chords
e|-----3--3---2--2---0--0-----------------0-0---------------------------------|
B|-----0--0---3--3---1--1--0--1--0--1--0--3-3---------------------------------|
G|-----0--0---2--2---0--0--0--0--0--0--0--0-0---------------------------------|
D|-----0--0---0--0---2--2-----------------2-2---------------------------------|
A|-----2--2---x--x---3--3-----------------3-3---------------------------------|
E|-----3--3---x--x---x--x-----------------x-x---------------------------------|

^Repeat this riff while singing begins




             I AM WORKING ON THE SOLO RIGHT NOW!!! IT WILL BE RELEASED AS A SEPARATE TAB.

                               *Likes and ratings are appreciated ;)*


************************************

| /   slide up
| \   slide down
| h   hammer-on
| p   pull-off
| ~   vibrato
| +   harmonic
| x   Mute note
| b   Bend
| pb  Pre-bend
| br  Bend release
| pbr Pre-bend release
| brb Bend release bend

************************************

            
            
Suggest correction
Creating personal tab
Creating personal tab
You can edit any tab online and save it as your Personal.

You can edit, replace or remove any tab part or add personal notes – all changes will be seen only by you.

Personal tabs can be accessed anytime from any device, even offline.
Learn more »
comments
print report bad tab
5 comments total. Showing first comments.
0 reply
Lobsterdeth 268 Jun 30, 2016 05:38 PM

from what I've seen the kinda chord is played by J as

e|-3-0-
B|-6-6-
G|-5-5-

-1 reply
jacklondon1888 10 Aug 03, 2017 05:39 PM

didn't like this contribution

-1 reply
sheepskinfarm 10 Aug 03, 2017 05:40 PM

didn't like this contribution

guest
You may want to rate the tab now too:
select rating
Wanna post a correction for this tab? Suggest correction