Oops, an error
Loading. Please wait.

Watch The Corners Tab

version 3
version 3

Whole song

  • This is the only version with all guitar parts including all solos and chords.
124 views 9 this week
no commentswrite comment
1 2 3 4 5
2 more votes to show rating
add to favorites
launch autoscroll
font size
0
reset
how to read this tab
guitar tuner
Autoscroll
slow
fast
+/-
esc
set tempo
stop
Help us to improve Ultimate-Guitar.com Take our survey!
×
Author
Difficulty
Capo
intermediate
9th fret
About this tab version
This is the only version with all guitar parts including all solos and chords. Was this info helpful? Yes No
Artist: Dinosaur Jr
Song: Watch The Corners
Tabbed By: Rory H
Email: rdeh10@googlemail.com

**CAPO ON 9TH FRET**
The chords are all tabbed relative to the capo, the solos are all tabbed relative to the nut, sorry if this
is at all confusing...

[Intro]

e|-----------------------------|
B|-----------------------------|
G|-----------------------------|
D|-2--2--2-2-2-2--2-2--2-2-2-2-| x3
A|-2--2--2-2-2-2--2-2--2-2-2-2-|
E|-0--0--0-0-0-0--0-0--0-0-0-0-|

e|---------------------------|
B|---------------------------|
G|---------------------------|
D|-2--2--2-2-2-2-2-2-2-2-----| 
A|-2--2--2-2-2-2-2-2-2-2-----|
E|-0--0--0-0-0-0-0-0-0-0-1-2-|


[Verse]

Not gonna bother with the rhythm, fairly simple to work out :)

E--3---0---0---0---0-------------------|
B--3---3---0---1---1---0-----0-----0---|
G--0---2---0---0---2---0--0-----0----0-|
D--0---0---2---2---2---2---------------| x2
A--2-------2---3---0---3---------------|
E--3-------0---------------------------|

[Pre-Chorus]

E----------------------------------|
B----------1-1-----1--1--3---------|
G-0-0------0-0-----0--0--0---------|
D-2-2------2-2-----2--2--0---------| x4
A-2-2------3-3-----3--3--2---------|
E-0-0--------------------3--xx-3-2-|

[Chorus]

Again, won't bother with the rhythm

E--0----0----3----2---------|
B--1----1----3----3---------|
G--2----0----0----2---------| 
D--2----2----0----0---------| x2
A--0----3----2--------------|
E------------3--------------|

E--0-------|
B--1----0--|
G--2----0--|
D--2----2--|
A--0----2--|
E-------0--|

[Repeat Intro]
[Repeat Verse]
[Repeat Pre-Chorus]
[Repeat First Line of Chorus and continue into solo below]

[Solo]


e|-----------------------------------------------------------------------------------------------------|
B|-14-----17-------------------------------------------------------------19b21r19b21r19-19b21-19-17-19-|
G|-16b18-----16b18r16--------13-13h14-13-------------------16--16/18-16--------------------------------|
D|--------------------14--16-------------16b18-14-16h17h18---------------------------------------------|
A|-----------------------------------------------------------------------------------------------------|
E|-----------------------------------------------------------------------------------------------------|

e|-14-/17-16-17b19-16----------------------------------------------------------------------|
B|--------------------17-------17----------------------------14-----14-----14b15----14\12--|
G|-----------------------16b18----16b18r16-14h16-13----------------------------------------|
D|--------------------------------------------------14-------------------------------------|
A|-----------------------------------------------------16b18----b18----b18------b18--------|
E|-----------------------------------------------------------------------------------------|

e|-----------------------------------------------------------|
B|-----------------------------------------------------------|
G|-13h16p13----13-14-13--14b16r14-13-------------------------|
D|----------16-----------------------16---14----14-16b18-r16-|
A|-------------------------------------------16--------------|
E|-----------------------------------------------------------|

[Acoustic Guitar Plays Chorus Chords x1] <- it sounds as if the acoustic has no capo, but just do whatever 
                                            suits
[Chorus Chords continue until the end from this point]

[Chorus]

e|-----------------------------14b16-12-14b16r14-12-11-14p11----11-14p11----11-------------------|
B|--------------------10-14-12-------------------------------12----------12----12----------------|
G|-16b18---13\11/13---------------------------------------------------------------14-13h14p13-11-|
D|-----------------------------------------------------------------------------------------------|
A|-----------------------------------------------------------------------------------------------|
E|-----------------------------------------------------------------------------------------------|

e|------------------------------------------------------------------------------------------------|
B|----------------------17b19r17-17----------------------------------------------------17b19r17-14|
G|-16b18r16-16----------------------18-16---13-13-----------13-16--13-16--------------------------|
D|-------------16b18r16---------------------------14-13--14---------------16b18-18r16-------------|
A|------------------------------------------------------------------------------------------------|
E|------------------------------------------------------------------------------------------------|

e|----------------------------------------------------------------------------|
B|----------------------------------------------------------------------------|
G|-16b18r16-------13----------------------------------------------------------|
D|----------14-16-----16-13--14-16--------14--16-14----14-16b18---------------|
A|----------------------------------14h16-----------16------------------------|
E|----------------------------------------------------------------------------|




[Outro Solo]

e|----------------------------------------------------------------------------------------|
B|-14-----14-----14----14----14----17-14--------------------------------------------------|
G|-16b18--16b18--16b18-16b18-16b18-------13-16-13--14-13-14-14--13h14p13------------------|
D|-----------------------------------------------------------------------16b18-16p14---14~|
A|----------------------------------------------------------------------------------16----|
E|----------------------------------------------------------------------------------------|

e|---------------------------------------------------------------------------------------------|
B|-------------------------14----14-17-14----14-/19-19-19-19-17-17-19-17-19-19b21--21-21-21r19-|
G|----------------13-14-16----16----------16---------------------------------------------------|
D|-16-14-16b18-16------------------------------------------------------------------------------|
A|---------------------------------------------------------------------------------------------|
E|---------------------------------------------------------------------------------------------|

e|-----------------------------------------------------------------------------------------------------|
B|-17-19-17--17-19-19b21--17-19-16--16h19p16-12--12b13r12-9-12-----------------------------------------|
G|-------------------------------------------------------------9---------------------------------------|
D|----------------------------------------------------------------16b18-18r16-14----14-16b18-14-16--14-|
A|-------------------------------------------------------------------------------16--------------------|
E|-----------------------------------------------------------------------------------------------------|

e|-----------------------------------------------------------------------------------------------|
B|-----------------------------------------------------------------------------------------------|
G|-------13-14-13----13-14-16-16--16-16b18-16-14-13-14--13-14-13-14--13-14-13-14b15--13-14-13-14-|
D|-14-16----------16-----------------------------------------------------------------------------|
A|-----------------------------------------------------------------------------------------------|
E|-----------------------------------------------------------------------------------------------|

e|--------------------------12----------16-----14-16-----14-16----14-16----14-16----14-16-17-16-|
B|-----------------------------14-12-9-------17--------17-------17-------17------17-------------|
G|-13-14-13-14b15--13-14-13---------------------------------------------------------------------|
D|----------------------------------------------------------------------------------------------|
A|----------------------------------------------------------------------------------------------|
E|----------------------------------------------------------------------------------------------|

e|-16-17-17b19-19-19-17-16-14-14-14h16-14----14-------------------------------------------------|
B|----------------------------------------17----17b19-17-17-17b19r17----------------------------|
G|-------------------------------------------------------------------14-14h16-14-13-13h14p13----|
D|-------------------------------------------------------------------------------------------16-|
A|----------------------------------------------------------------------------------------------|
E|----------------------------------------------------------------------------------------------|

e|---------------------------------------------------------14-11h14p11----11----11-14-11----11----11----|
B|----------------------------14----------17----17----16---------------12----12----------12----12----12-|
G|-------13h14p13----13h14h16----16-14-13----13----13---------------------------------------------------|
D|-14h16----------16------------------------------------------------------------------------------------|
A|------------------------------------------------------------------------------------------------------|
E|------------------------------------------------------------------------------------------------------|

e|---------------------------------------------------------------------------------------------|
B|----------------------------------------17b19r17-14------------------------------------------|
G|-16b18-16-\13-16-13---------------------------------16--16-13--------------------------------|
D|--------------------17b18-16--17b18-14------------------------16-14-------16-14--------------|
A|--------------------------------------------------------------------16-14-------16-14-----14-|
E|--------------------------------------------------------------------------------------16-----|

e|--------------------------------------------------------------------------------------11-----11h14p11----|
B|-------------------------------------------------------------------12-----------12-14-----12----------12-|
G|----------13-----------11-13-14-13-11-13-14-13-11-13-11-11---11-13----11--11/13--------------------------|
D|----13-14--------13-14-----------------------------------------------------------------------------------|
A|-11-----------14-----------------------------------------------------------------------------------------|
E|---------------------------------------------------------------------------------------------------------|

e|-11-------12-14b16-16r14-12-/17-16-17-17b19-16----17-16-----19-16----16-19b21--19b21r19-17-16-17-|
B|----12-14--------------------------------------17-------17--------17-----------------------------|
G|-------------------------------------------------------------------------------------------------|
D|-------------------------------------------------------------------------------------------------|
A|-------------------------------------------------------------------------------------------------|
E|-------------------------------------------------------------------------------------------------|


e|-16h17p16-------------------------------------------------------------------------------------|
B|----------17b19-17-14-17----------------------------------------------------------------------|
G|-------------------------16b18r16-14-13-13----------------------------------------------------|
D|-------------------------------------------16-16-14-14-14\13-13-13-------14-16b18-16-14----14-|
A|-------------------------------------------------------------------14-16----------------16----|
E|----------------------------------------------------------------------------------------------|


At this point the track begins fading out and so I'll leave you to do what you will with the ending


************************************

| x   Dead note
| g   Grace note
| (n) Ghost note
| h   Hammer-on
| p   Pull-off
| r   Release
| >   Accented note
| t   Tapping
| b   Bend
| br  Bend release
| pb  Pre-bend
| pbr Pre-bend release
| /   Slide up
| \   Slide down
| ~   Vibrato
| s   Slap
| P   Pop
| PM  Palm mute
| TR  Trill
| N   Tremolo

************************************
Suggest correction
Give kudos to tab author, rate the tab!
1 2 3 4 5
comments
print report bad tab
guest
You may want to rate the tab now too:
select rating
Wanna post a correction for this tab? Suggest correction