Oops, an error
Loading. Please wait.

Nature Nurture Tab

88 views 1 this week
no commentswrite comment
1 2 3 4 5
3 more votes to show rating
add to favorites
launch autoscroll
font size
0
reset
how to read this tab
guitar tuner
Autoscroll
slow
fast
+/-
esc
set tempo
stop
Help us to improve Ultimate-Guitar.com Take our survey!
×
Author
Difficulty
Capo
novice
2nd fret
Dinosaur Pile Up - Nature Nurture
Album: Nature Nurture

Tabbed By: Rory H
Email: rdeh10@googlemail.com
 
**CAPO ON 2ND FRET**

[Verse]

e|-0-0--0-0--0-0--0-0--0-0--0--0-0--0-0--0---0---0--0-|
B|-0-0--0-0--0-0--0-0--0-0--0--0-0--0-0--0---0---0--0-|
G|-6-6--6-6--6-6--6-4--6-4--1--1-1--1-1--1---0---0--0-| 
D|-7-7--7-7--7-7--7-5--7-5--2--2-2--2-2--2--14--14-14-|
A|-7-7--7-7--7-7--7-5--7-5--2--2-2--2-2--2--14--14-14-|
E|-5-5--5-5--5-5--5-3--5-3--0--0-0--0-0--0--12--12-12-|

e|-0-0--0-0--0-0--0-0--0-0--0--0-0--0-0--0---0---0--0-|
B|-0-0--0-0--0-0--0-0--0-0--0--0-0--0-0--0---0---0--0-|
G|-4/6--6-6--6-6--6-4--6-4--1--1-1--1-1--1---0---0--0-| x2
D|-5/7--7-7--7-7--7-5--7-5--2--2-2--2-2--2--14--14-14-|
A|-5/7--7-7--7-7--7-5--7-5--2--2-2--2-2--2--14--14-14-|
E|-3/5--5-5--5-5--5-3--5-3--0--0-0--0-0--0--12--12-12-|

e|-0-0--0-0-------------|
B|-0-0--0-0-------------|
G|-4/6--6-6--6--5--1--4-|
D|-5/7--7-7--7--6--2--5-|
A|-5/7--7-7--7--6--2--5-|
E|-3/5--5-5--5--4--0--3-|


[Chorus]

e|---------------------|----------------------|
B|-------------------0-|--------------------0-|
G|-------------------0-|--------------------0-| x4
D|-2-2-----2-2--2-2----|-2-2--2---2-2--2-2----|
A|-2-2-----2-2--2-2----|-2-2--2---2-2--2-2----|
E|-0-0-----0-0--0-0----|-0-0--0---0-0--0-0----|


[Verse]

e|-0-0--0-0--0-0--0-0--0-0--0--0-0--0-0--0---0---0--0-|
B|-0-0--0-0--0-0--0-0--0-0--0--0-0--0-0--0---0---0--0-|
G|-6-6--6-6--6-6--6-4--6-4--1--1-1--1-1--1---0---0--0-| 
D|-7-7--7-7--7-7--7-5--7-5--2--2-2--2-2--2--14--14-14-|
A|-7-7--7-7--7-7--7-5--7-5--2--2-2--2-2--2--14--14-14-|
E|-5-5--5-5--5-5--5-3--5-3--0--0-0--0-0--0--12--12-12-|

e|-0-0--0-0--0-0--0-0--0-0--0--0-0--0-0--0---0---0--0-|
B|-0-0--0-0--0-0--0-0--0-0--0--0-0--0-0--0---0---0--0-|
G|-4/6--6-6--6-6--6-4--6-4--1--1-1--1-1--1---0---0--0-| x2
D|-5/7--7-7--7-7--7-5--7-5--2--2-2--2-2--2--14--14-14-|
A|-5/7--7-7--7-7--7-5--7-5--2--2-2--2-2--2--14--14-14-|
E|-3/5--5-5--5-5--5-3--5-3--0--0-0--0-0--0--12--12-12-|

e|-0-0--0-0-------------|
B|-0-0--0-0-------------|
G|-4/6--6-6--6--5--1--4-|
D|-5/7--7-7--7--6--2--5-|
A|-5/7--7-7--7--6--2--5-|
E|-3/5--5-5--5--4--0--3-|


[Chorus]

e|---------------------|----------------------|
B|-------------------0-|--------------------0-|
G|-------------------0-|--------------------0-| x4
D|-2-2-----2-2--2-2----|-2-2--2---2-2--2-2----|
A|-2-2-----2-2--2-2----|-2-2--2---2-2--2-2----|
E|-0-0-----0-0--0-0----|-0-0--0---0-0--0-0----|


[Bridge]
(cleaner tone, played softer)
e|-0-0--0-0--0-0--0-0--0-0--0--0-0--0-0--0---0---0--0-|
B|-0-0--0-0--0-0--0-0--0-0--0--0-0--0-0--0---0---0--0-|
G|-6-6--6-6--6-6--6-4--6-4--1--1-1--1-1--1---0---0--0-| 
D|-7-7--7-7--7-7--7-5--7-5--2--2-2--2-2--2--14--14-14-|
A|-7-7--7-7--7-7--7-5--7-5--2--2-2--2-2--2--14--14-14-|
E|-5-5--5-5--5-5--5-3--5-3--0--0-0--0-0--0--12--12-12-|

e|-0-0--0-0--0-0--0-0--0-0--0--0-0--0-0--0---0---0--0-|
B|-0-0--0-0--0-0--0-0--0-0--0--0-0--0-0--0---0---0--0-|
G|-4/6--6-6--6-6--6-4--6-4--1--1-1--1-1--1---0---0--0-| x2
D|-5/7--7-7--7-7--7-5--7-5--2--2-2--2-2--2--14--14-14-|
A|-5/7--7-7--7-7--7-5--7-5--2--2-2--2-2--2--14--14-14-|
E|-3/5--5-5--5-5--5-3--5-3--0--0-0--0-0--0--12--12-12-|

e|-0-0--0-0-------------|
B|-0-0--0-0-------------|
G|-4/6--6-6--6--5--1--4-|
D|-5/7--7-7--7--6--2--5-|
A|-5/7--7-7--7--6--2--5-|
E|-3/5--5-5--5--4--0--3-|


Then

e|---------------------------------------------|
B|---------------------------------------------|
G|---------------------------------------------| x8
D|-2-2---x--2-2--2-2--x--2-2--2-x--2-2--2-2--x-|
A|-2-2---x--2-2--2-2--x--2-2--2-x--2-2--2-2--x-|
E|-0-0---x--0-0--0-0--x--0-0--0-x--0-0--0-0--x-|
PM.............................................|


[Chorus]

e|---------------------|----------------------|
B|-------------------0-|--------------------0-|
G|-------------------0-|--------------------0-| x4
D|-2-2-----2-2--2-2----|-2-2--2---2-2--2-2----|
A|-2-2-----2-2--2-2----|-2-2--2---2-2--2-2----|
E|-0-0-----0-0--0-0----|-0-0--0---0-0--0-0----|

e|---------------------------------------------|
B|-------------------0-----------------------0-|
G|------0------------0---------0-0-----------0-| x2
D|-2-2-----2-2--2-2-----2-2--2-----2-2--2-2----|
A|-2-2-----2-2--2-2-----2-2--2-----2-2--2-2----|
E|-0-0-----0-0--0-0-----0-0--0-----0-0--0-0----|

e|------------------------------------|
B|------------------------------------|
G|------------------------------------| x2
D|-2-2----------2-2--2-2--------------|
A|-2-2----------2-2--2-2--------------|
E|-0-0--/12-12--0-0--0-0--12-12-12-12-|

e|---------------------|----------------------|
B|-------------------0-|--------------------0-|
G|-------------------0-|--------------------0-| 
D|-2-2-----2-2--2-2----|-2-2--2---2-2--2-2----|
A|-2-2-----2-2--2-2----|-2-2--2---2-2--2-2----|
E|-0-0-----0-0--0-0----|-0-0--0---0-0--0-0----|


************************************

| x   Dead note
| /   Slide up
| PM  Palm mute

************************************ 
Suggest correction
Give kudos to tab author, rate the tab!
1 2 3 4 5
comments
print report bad tab
guest
You may want to rate the tab now too:
select rating
Wanna post a correction for this tab? Suggest correction