Oops, an error
Loading. Please wait.

Start Again Tab

25 views 1 this week
no commentswrite comment
1 2 3 4 5
3 more votes to show rating
add to favorites
launch autoscroll
font size
0
reset
how to read this tab
guitar tuner
Autoscroll
slow
fast
+/-
esc
set tempo
stop
Help us to improve Ultimate-Guitar.com Take our survey!
×
Author
Difficulty
Tuning
novice
D A D G B E
Dinosaur Pile Up - Start Again

Tabbed By: Rory H
Email: rdeh10@googlemail.com

[Intro]
GTR1
e|--------------------------------------------------------------------------------------|
B|-12-------12-12--12-------12-12--12-------12-10-------10-10--10-------10-10--10-------|
G|--------------------------------------------------------------------------------------|
D|----12-12-----------12-12-----------12-12-------12-12-----------12-12-----------12-12-|
A|--------------------------------------------------------------------------------------|
D|--------------------------------------------------------------------------------------|

e|---------------------------------------------|
B|-10-10-------10-10--10-------10-10-----------|
G|---------------------------------------------|
D|-------11-11-----------11-11-------9-11-12-9-|
A|---------------------------------------------|
D|---------------------------------------------|

GTR2
e|---------------------------------------------------------------------------------|
B|---------------------------------------------------------------------------------|
G|---------------------------------------------------------------------------------|
D|-----5-12\--9-9-9-9-9----9-9-9-9-9----9-9-9\---4-4-4-4-4----4-4-4-4-4----4-0-2-4-|
A|-----5-12\--9-9-9-9-9----9-9-9-9-9----9-9-9\---4-4-4-4-4----4-4-4-4-4----4-0-2-4-|
D|-----5-12\--9-9-9-9-9----9-9-9-9-9----9-9-9\---4-4-4-4-4----4-4-4-4-4----4-0-2-4-|


[Verse]

e|------------------------------------------------------------------------|
B|------------------------------------------------------------------------|
G|------------------------------------------------------------------------| 
D|-5-5-5----5-5----5-5-5-/9-9-9----9-9----9-9-9\--4-4-4----4-4----4-0-2-4-|
A|-5-5-5----5-5----5-5-5-/9-9-9----9-9----9-9-9\--4-4-4----4-4----4-0-2-4-|
D|-5-5-5----5-5----5-5-5-/9-9-9----9-9----9-9-9\--4-4-4----4-4----4-0-2-4-|
PM........................................................................|

e|-------------------------------------------------------------------------|
B|-------------------------------------------------------------------------|
G|-------------------------------------------------------------------------| 
D|-5-5-5----5-5----5-4-2-0-9-9-9----9-9----9-9-9\--4-4-4----4-4----4-0-2-4-|
A|-5-5-5----5-5----5-4-2-0-9-9-9----9-9----9-9-9\--4-4-4----4-4----4-0-2-4-|
D|-5-5-5----5-5----5-4-2-0-9-9-9----9-9----9-9-9\--4-4-4----4-4----4-0-2-4-|
PM.........................................................................|


[Pre-Chorus]

e|---------------------------------|
B|---------------------------------|
G|---------------------------------| x2 (on repeat, release PM gradually)
D|-5-5-5-5-9-9-9-9-0-0-0-0-4-4-4-4-|
A|-5-5-5-5-9-9-9-9-0-0-0-0-4-4-4-4-|
D|-5-5-5-5-9-9-9-9-0-0-0-0-4-4-4-4-|
PM.................................|


[Chorus]
GTR1
e||--------------------------------------------------------------------------------------|
B||-12-------12-12--12-------12-12--12-------12-10-------10-10--10-------10-10--10-------|
G||--------------------------------------------------------------------------------------|
D||----12-12-----------12-12-----------12-12-------12-12-----------12-12-----------12-12-|
A||--------------------------------------------------------------------------------------|
D||--------------------------------------------------------------------------------------|

e|---------------------------------------------||
B|-10-10-------10-10--10-------10-10-----------||
G|---------------------------------------------|| x2
D|-------11-11-----------11-11-------9-11-12-9-||
A|---------------------------------------------||
D|---------------------------------------------||

GTR2
e|--------------------------------------------------------------------------------------------------------|
B|--------------------------------------------------------------------------------------------------------|
G|--------------------------------------------------------------------------------------------------------|
D|-5-5-5-5-5-5-5-5-5-5-5-5-5-5-5-5-9-9-9-9-9-9-9-9-9-12-12-12-12-12-12-12-4-4-4-4-4-4-4-4-4-4-4-4-4-0-2-4-|
A|-5-5-5-5-5-5-5-5-5-5-5-5-5-5-5-5-9-9-9-9-9-9-9-9-9-12-12-12-12-12-12-12-4-4-4-4-4-4-4-4-4-4-4-4-4-0-2-4-|
D|-5-5-5-5-5-5-5-5-5-5-5-5-5-5-5-5-9-9-9-9-9-9-9-9-9-12-12-12-12-12-12-12-4-4-4-4-4-4-4-4-4-4-4-4-4-0-2-4-|

e|--------------------------------------------------------------------------------------------------------|
B|--------------------------------------------------------------------------------------------------------|
G|--------------------------------------------------------------------------------------------------------|
D|-5-5-5-5-5-5-5-5-5-5-5-5-5-5-5-5-9-9-9-9-9-9-9-9-9-12-12-12-12-12-12-12-4-4-4-4-4-4-4-4-4-4-4-4-4-0-2-4-|
A|-5-5-5-5-5-5-5-5-5-5-5-5-5-5-5-5-9-9-9-9-9-9-9-9-9-12-12-12-12-12-12-12-4-4-4-4-4-4-4-4-4-4-4-4-4-0-2-4-|
D|-5-5-5-5-5-5-5-5-5-5-5-5-5-5-5-5-9-9-9-9-9-9-9-9-9-12-12-12-12-12-12-12-4-4-4-4-4-4-4-4-4-4-4-4-4-0-2-4-|


[Verse]
GTR1
e|-----------------------------------------------------------------------------------------|
B|-----------------------------------------------------------------------------------------|
G|-----------------------------------------------------------------------------------------|
D|-12-12-12---12-12---12-12-12-12-16-16-16---16-16---16-16-16--11-11-11---11-11--9-11-12-9-|
A|-----------------------------------------------------------------------------------------|
D|-----------------------------------------------------------------------------------------|

GTR2
e|-------------------------------------------------------------------------|
B|-------------------------------------------------------------------------|
G|-------------------------------------------------------------------------| 
D|-5-5-5----5-5----5-4-2-0-9-9-9----9-9----9-9-9\--4-4-4----4-4----4-0-2-4-|
A|-5-5-5----5-5----5-4-2-0-9-9-9----9-9----9-9-9\--4-4-4----4-4----4-0-2-4-|
D|-5-5-5----5-5----5-4-2-0-9-9-9----9-9----9-9-9\--4-4-4----4-4----4-0-2-4-|
PM.........................................................................|


GTR1
e|-------------------------------------------------------------------------------------------------------|
B|-------------------------------------------------------------------------------------------------------|
G|-------------------------------------------------------------------------------------------------------|
D|-12-12-12--11-11-11--9---14b16r14-12-14-14-14-12-12-12-14--14---14b16r14-12-14-14-14-14--11-12----8b10-|
A|-------------------------------------------------------------------------------------------------------|
D|-------------------------------------------------------------------------------------------------------|

GTR2
e|--------------------------------------------------------------------------|
B|--------------------------------------------------------------------------|
G|--------------------------------------------------------------------------| 
D|-5-5-5----5-5----5-4-2-0-9-9-9----9-9--9--9-0-9\--4-4-4----4-4----4-0-2-4-|
A|-5-5-5----5-5----5-4-2-0-9-9-9----9-9--9--9-0-9\--4-4-4----4-4----4-0-2-4-|
D|-5-5-5----5-5----5-4-2-0-9-9-9----9-9--9--9-0-9\--4-4-4----4-4----4-0-2-4-|
PM..........................................................................|



[Pre-Chorus]
GTR1
e|-----------------------------------------|
B|-----------------------------------------|
G|-----------------------------------------|
D|-12-12-12-12-11-11-11-11-9-9-9-9-7-7-7-7-|
A|-----------------------------------------|
D|-----------------------------------------|

GTR2
e|---------------------------------|
B|---------------------------------|
G|---------------------------------| 
D|-5-5-5-5-9-9-9-9-0-0-0-0-4-4-4-4-|
A|-5-5-5-5-9-9-9-9-0-0-0-0-4-4-4-4-|
D|-5-5-5-5-9-9-9-9-0-0-0-0-4-4-4-4-|
PM.................................|


GTR1
e|-----------------------------------------|
B|-----------------------------------------|
G|-11-11-11-11-9-9-9-9-7-7-7-7-11-11-11-11-|
D|-----------------------------------------|
A|-----------------------------------------|
D|-----------------------------------------|

GTR2
e|-----------------------------------------|
B|-----------------------------------------|
G|-----------------------------------------| 
D|-5-5-5-5-9-9-9-9-12-12-12-12-16-16-16-16-|
A|-5-5-5-5-9-9-9-9-12-12-12-12-16-16-16-16-|
D|-5-5-5-5-9-9-9-9-12-12-12-12-16-16-16-16-|
PM.........................................|


[Chorus]
GTR1
e||--------------------------------------------------------------------------------------|
B||-12-------12-12--12-------12-12--12-------12-10-------10-10--10-------10-10--10-------|
G||--------------------------------------------------------------------------------------|
D||----12-12-----------12-12-----------12-12-------12-12-----------12-12-----------12-12-|
A||--------------------------------------------------------------------------------------|
D||--------------------------------------------------------------------------------------|

e|---------------------------------------------||
B|-10-10-------10-10--10-------10-10-----------||
G|---------------------------------------------|| x2
D|-------11-11-----------11-11-------9-11-12-9-||
A|---------------------------------------------||
D|---------------------------------------------||

GTR2
e|--------------------------------------------------------------------------------------------------------|
B|--------------------------------------------------------------------------------------------------------|
G|--------------------------------------------------------------------------------------------------------|
D|-5-5-5-5-5-5-5-5-5-5-5-5-5-5-5-5-9-9-9-9-9-9-9-9-9-12-12-12-12-12-12-12-4-4-4-4-4-4-4-4-4-4-4-4-4-0-2-4-|
A|-5-5-5-5-5-5-5-5-5-5-5-5-5-5-5-5-9-9-9-9-9-9-9-9-9-12-12-12-12-12-12-12-4-4-4-4-4-4-4-4-4-4-4-4-4-0-2-4-|
D|-5-5-5-5-5-5-5-5-5-5-5-5-5-5-5-5-9-9-9-9-9-9-9-9-9-12-12-12-12-12-12-12-4-4-4-4-4-4-4-4-4-4-4-4-4-0-2-4-|

e|--------------------------------------------------------------------------------------------------------|
B|--------------------------------------------------------------------------------------------------------|
G|--------------------------------------------------------------------------------------------------------|
D|-5-5-5-5-5-5-5-5-5-5-5-5-5-4-2-0-9-9-9-9-9-9-9-9-9-12-12-12-12-12-12-12-4-4-4-4-4-4-4-4-4-4-4-4-4-0-2-4-|
A|-5-5-5-5-5-5-5-5-5-5-5-5-5-4-2-0-9-9-9-9-9-9-9-9-9-12-12-12-12-12-12-12-4-4-4-4-4-4-4-4-4-4-4-4-4-0-2-4-|
D|-5-5-5-5-5-5-5-5-5-5-5-5-5-4-2-0-9-9-9-9-9-9-9-9-9-12-12-12-12-12-12-12-4-4-4-4-4-4-4-4-4-4-4-4-4-0-2-4-|

[Post-Chorus]
GTR1
e|-----------------------------------------|
B|-----------------------------------------|
G|-----------------------------------------| x2
D|-12-12-12-12-11-11-11-11-9-9-9-9-7-7-7-7-|
A|-----------------------------------------|
D|-----------------------------------------|

e|-------------------------------------|
B|-------------------------------------|
G|-11-11-11-11-9-9-9-9-7-7-7-7-6-6-6-6-| x2
D|-------------------------------------|
A|-------------------------------------|
D|-------------------------------------|

GTR2
e|---------------------------------|
B|---------------------------------|
G|---------------------------------| 
D|-5-5-5-5-9-9-9-9-0-0-0-0-4-4-4-4-| x4
A|-5-5-5-5-9-9-9-9-0-0-0-0-4-4-4-4-|
D|-5-5-5-5-9-9-9-9-0-0-0-0-4-4-4-4-|
PM.................................|




[Bridge]
Play softer with a cleaner tone
e|--------------------------------------------------------------------------------------|
B|-12-------12-12--12-------12-12--12-------12-10-------10-10--10-------10-10--10-------|
G|--------------------------------------------------------------------------------------|
D|----12-12-----------12-12-----------12-12-------12-12-----------12-12-----------12-12-|
A|--------------------------------------------------------------------------------------|
D|--------------------------------------------------------------------------------------|

e|-----------------------------------|
B|-10-10-------10-10--10-------10-10-|
G|-----------------------------------|
D|-------11-11-----------11-11-------|
A|-----------------------------------|
D|-----------------------------------|


[Chorus]
GTR1
e||--------------------------------------------------------------------------------------|
B||-12-------12-12--12-------12-12--12-------12-10-------10-10--10-------10-10--10-------|
G||--------------------------------------------------------------------------------------|
D||----12-12-----------12-12-----------12-12-------12-12-----------12-12-----------12-12-|
A||--------------------------------------------------------------------------------------|
D||--------------------------------------------------------------------------------------|

e|---------------------------------------------||
B|-10-10-------10-10--10-------10-10-----------||
G|---------------------------------------------|| x2
D|-------11-11-----------11-11-------9-11-12-9-||
A|---------------------------------------------||
D|---------------------------------------------||

GTR2
e|--------------------------------------------------------------------------------------------------------|
B|--------------------------------------------------------------------------------------------------------|
G|--------------------------------------------------------------------------------------------------------|
D|-5-5-5-5-5-5-5-5-5-5-5-5-5-5-5-5-9-9-9-9-9-9-9-9-9-12-12-12-12-12-12-12-4-4-4-4-4-4-4-4-4-4-4-4-4-0-2-4-|
A|-5-5-5-5-5-5-5-5-5-5-5-5-5-5-5-5-9-9-9-9-9-9-9-9-9-12-12-12-12-12-12-12-4-4-4-4-4-4-4-4-4-4-4-4-4-0-2-4-|
D|-5-5-5-5-5-5-5-5-5-5-5-5-5-5-5-5-9-9-9-9-9-9-9-9-9-12-12-12-12-12-12-12-4-4-4-4-4-4-4-4-4-4-4-4-4-0-2-4-|

e|--------------------------------------------------------------------------------------------------------|
B|--------------------------------------------------------------------------------------------------------|
G|--------------------------------------------------------------------------------------------------------|
D|-5-5-5-5-5-5-5-5-5-5-5-5-5-4-2-0-9-9-9-9-9-9-9-9-9-12-12-12-12-12-12-12-4-4-4-4-4-4-4-4-4-4-4-4-4-0-2-4-|
A|-5-5-5-5-5-5-5-5-5-5-5-5-5-4-2-0-9-9-9-9-9-9-9-9-9-12-12-12-12-12-12-12-4-4-4-4-4-4-4-4-4-4-4-4-4-0-2-4-|
D|-5-5-5-5-5-5-5-5-5-5-5-5-5-4-2-0-9-9-9-9-9-9-9-9-9-12-12-12-12-12-12-12-4-4-4-4-4-4-4-4-4-4-4-4-4-0-2-4-|


[Final Chorus]
GTR1
e|---------------------------------------------------------------------------------------------|
B|-12-------12-12--12-------12-12-----14---15----10-------10-10--10-------10-10----14----15----|
G|---------------------------------------------------------------------------------------------|
D|----12-12-----------12-12--------12---12----12----12-12-----------12-12-------12----12----12-|
A|---------------------------------------------------------------------------------------------|
D|---------------------------------------------------------------------------------------------|

e|---------------------------------------------|
B|-10-------10-10--10-------10-10-----------12-|
G|---------------------------------------------|
D|----11-11-----------11-11-------9-11-12-9----|
A|---------------------------------------------|
D|---------------------------------------------|

GTR2
e|--------------------------------------------------------------------------------------------------------|
B|--------------------------------------------------------------------------------------------------------|
G|--------------------------------------------------------------------------------------------------------|
D|-5-5-5-5-5-5-5-5-5-5-5-5-5-4-2-0-9-9-9-9-9-9-9-9-9-12-12-12-12-12-12-12-4-4-4-4-4-4-4-4-4-4-4-4-4-0-2-4-|
A|-5-5-5-5-5-5-5-5-5-5-5-5-5-4-2-0-9-9-9-9-9-9-9-9-9-12-12-12-12-12-12-12-4-4-4-4-4-4-4-4-4-4-4-4-4-0-2-4-|
D|-5-5-5-5-5-5-5-5-5-5-5-5-5-4-2-0-9-9-9-9-9-9-9-9-9-12-12-12-12-12-12-12-4-4-4-4-4-4-4-4-4-4-4-4-4-0-2-4-|


************************************

| x   Dead note
| b   Bend
| /   Slide up
| \   Slide down
| PM  Palm mute

************************************
Suggest correction
Give kudos to tab author, rate the tab!
1 2 3 4 5
comments
print report bad tab
guest
You may want to rate the tab now too:
select rating
Wanna post a correction for this tab? Suggest correction