Oops, an error
Loading. Please wait.

Dont Talk To Strangers tab

version 2
version 2

Whole song

by Dio
775 views 1 this week
1 commentread comment
1 2 3 4 5
2 more votes to show rating
add to favorites
×
Save as Personal and add changes to this tab that will be seen only by you. Learn more ›
×
You can save this tab as Personal to edit and correct it or add notes. All changes will be seen only by you. Learn more »
launch autoscroll
font size
0
reset
how to read this tab
guitar tuner
backing track
0:00
0:00
edit
Autoscroll
slow
fast
+/-
esc
set tempo
stop
Author
Difficulty
-------------------------------------------------------------------------------
                             Don't Talk to Strangers - Dio
-------------------------------------------------------------------------------
Tabbed by: Lily Jones

-Solo not included
-Tuning: Standard
(Note that some live versions are 1/2 step down)

e|---------0---------0---------0---------0--------0---------0---------0---------0--|
B|-------1---------1---------1---------1--------1---------1---------1---------1----| x2
G|-----2---------2---------3---------3--------0---------0---------0---------2------|
D|---0---------0---------0---------0--------3---------2---------3---------0--------|
A|---------------------------------------------------------------------------------|
E|---------------------------------------------------------------------------------|


e|---------0---------0---------0---------0--------0---------0---------0---------0--|
B|-------1---------1---------1---------1--------1---------1---------1---------1----|
G|-----2---------2---------3---------3--------0---------0---------0---------2------|
D|---0---------0---------0---------0--------3---------2---------3---------0--------|
A|---------------------------------------------------------------------------------|
E|---------------------------------------------------------------------------------|
   Don't      talk  to  strangers    cause  only    there      to do you harm
                                    they're
e|---------0---------0---------0---------0--------0---------0---------0---------0--|
B|-------1---------1---------1---------1--------1---------1---------1---------1----|
G|-----2---------2---------3---------3--------0---------0---------0---------2------|
D|---0---------0---------0---------0--------3---------2---------3---------0--------|
A|---------------------------------------------------------------------------------|
E|---------------------------------------------------------------------------------|
   Don't      write in starlight   cause    words    come      out    real
                                   the      may
e|---------0---------0---------0---------0--------0---------0---------0---------0--|
B|-------1---------1---------1---------1--------1---------1---------1---------1----|
G|-----2---------2---------3---------3--------0---------0---------0---------2------|
D|---0---------0---------0---------0--------3---------2---------3---------0--------|
A|---------------------------------------------------------------------------------|
E|---------------------------------------------------------------------------------|
   Don't     hide  in  doorways    you       find the key      that     opens
                                   may                               up your soul
e|---------0---------0---------0---------0--------0---------0---------0---------0--|
B|-------1---------1---------1---------1--------1---------1---------1---------1----|
G|-----2---------2---------3---------3--------0---------0---------0---------2------|
D|---0---------0---------0---------0--------3---------2---------3---------0--------|
A|---------------------------------------------------------------------------------|
E|---------------------------------------------------------------------------------|
   Don't      go  to  heaven          cause really             only     hell
                                       it's
e|---------0---------0---------0---------0--------0---------0---------0---------0--|
B|-------1---------1---------1---------1--------1---------1---------1---------1----|
G|-----2---------2---------3---------3--------0---------0---------0---------2------|
D|---0---------0---------0---------0--------3---------2---------3---------0--------|
A|---------------------------------------------------------------------------------|
E|---------------------------------------------------------------------------------|
   Don't      smell the flowers     they're  evil     drug      that    makes you
                                     an                               loose your mind

e|---------0---------0---------0---------0--------0---------0---------0------------|
B|-------1---------1---------1---------1--------1---------1---------1--------------|
G|-----2---------2---------3---------3--------0---------0---------0----------------|
D|---0---------0---------0---------0--------3---------2---------3---------7--------|
A|------------------------------------------------------------------------5--------|
E|---------------------------------------------------------------------------------|
   Don't      dream  of women             cause they   bring   you      down


e|---------------------------------------------------------------------------------|
B|---------------------------------------------------------------------------------|
G|---------------------------------------------------------------------------------|
D|---7------------7------------6------------5------------3-------------------------|
A|---5------------5------------5------------5------------5-------------------------|
E|---------------------------------------------------------------------------------|
                 hey          you         you've      I'm real
                 you         know me     touched me

e|---------------------------------------------------------------------------------|
B|---------------------------------------------------------------------------------|
G|---------------------------------------------------------------------------------|
D|---5------------6------------5------------3------------1--1--3--3----------------|
A|---7------------5------------5------------5------------3--3--5--5----------------|
E|---------------------------------------------------------------------------------|
   I'm         forever     the one that    look and     and feel me
                           lets you         see

e|---------------------------------------------------------------------------------|
B|---------------------------------------------------------------------------------|
G|---------------------------------------------------------------------------------|
D|---7-------------------------7-------------6-----------5-----------3-------------|
A|---5-------------------------5-------------5-----------5-----------5-------------|
E|---------------------------------------------------------------------------------|
   I'm danger I'm the stranger  I'm      I'm darkness  I'm anger   I'm pain


e|---------------------------------------------------------------------------------|
B|---------------------------------------------------------------------------------|
G|---------------------------------------------------------------------------------|
D|---7------------6------------5-------------3-----------1--1--3--3----------------|
A|---5------------5------------5-------------5-----------3--3--5--5----------------|
E|---------------------------------------------------------------------------------|
    I          I'm master  the evil song you sing inside  your brain


e|---------------------------------------------------------------------------------|
B|---------------------------------------------------------------------------------|
G|---------------------------------------------------------------------------------|
D|---1--1--3--3----------------7------5------7------10-----7------3------3---------|
A|---3--3--5--5----------------5------3------5------8------5------5------5---------|
E|---------------------------------------------------------------------------------|
   drive you insane        Don't talk

                                           Dmi      Bmi    C    Dmi (for solo)
e|---------------------------------------------------------------------------------|
B|---------------------------------------------------------------------------------|
G|---------------------------------------------------------------------------------|
D|---------------------------------------------------------------------------------|
A|---------------------------------------------------------------------------------|
E|---------------------------------------------------------------------------------|
  Don't let em inside   Runaway runaway go
   your mind yeah
      Dmi                     Bmi                    C                     Dmi
e|---------------------------------------------------------------------------------|
B|---------------------------------------------------------------------------------|
G|---------------------------------------------------------------------------------|
D|---------------------------------------------------------------------------------|
A|---------------------------------------------------------------------------------|
E|---------------------------------------------------------------------------------|
   Don't dance in          darkness            you may stumble there and you're sure to fall

     Dmi                      Bmi                     C                    Dmi
e|---------------------------------------------------------------------------------|
B|---------------------------------------------------------------------------------|
G|---------------------------------------------------------------------------------|
D|---------------------------------------------------------------------------------|
A|---------------------------------------------------------------------------------|
E|---------------------------------------------------------------------------------|
   Don't write in        starlight  cause the    words may come out         real


     Dmi                      Bmi                     C                    Dmi
e|---------------------------------------------------------------------------------|
B|---------------------------------------------------------------------------------|
G|---------------------------------------------------------------------------------|
D|---------------------------------------------------------------------------------|
A|---------------------------------------------------------------------------------|
E|---------------------------------------------------------------------------------|
   Don't talk to             strangers  cause they're  only there to    make you sad


e|---------1----------------------1------------------------------------------------|
B|-------3----------------------3--------------------------------------------------|
G|-----2----------------------3----------------------------------------------------|
D|---0----------------------3--------------------------------------------7---------|
A|-----------------------------------------------------------------------5---------|
E|---------------------------------------------------------------------------------|
   Don't dream of        women        cause they'll only bring you       down


e|---------------------------------------------------------------------------------|
B|---------------------------------------------------------------------------------|
G|---------------------------------------------------------------------------------|
D|---7------7------7------7------7------7------------------------------------------|
A|---5------5------5------5------5------5------------------------------------------|
E|---------------------------------------------------------------------------------|
          RUN RUN RUN AWAY

Thanks for using this tab!

            
            
Suggest correction
Creating personal tab
Creating personal tab
You can edit any tab online and save it as your Personal.

You can edit, replace or remove any tab part or add personal notes – all changes will be seen only by you.

Personal tabs can be accessed anytime from any device, even offline.
Learn more »
Give kudos to tab author, rate the tab!
1 2 3 4 5
comments
print report bad tab
1 comment total.
-1 reply
Pawer 10 Jul 21, 2016 01:18 AM

Play the song, play the record. Still think it's correct, well then you can play anything.

guest
You may want to rate the tab now too:
select rating
Wanna post a correction for this tab? Suggest correction