Oops, an error
Loading. Please wait.

Fever Dreams Tab

version 2
version 2

Intro

Interactive

1,753 views 6 this week
1 commentread comment
1 2 3 4 5
x 4
add to favorites
launch autoscroll
font size
0
reset
how to read this tab
guitar tuner
×
Best way to learn
"Fever Dreams"
Autoscroll
slow
fast
+/-
esc
set tempo
stop
The previous tab here was a bit, no dissing here, wrong..so here is the intro the way it is...
i will see if i can tab the whole song sometime soon..

kumar

----------------------------|   
----------------------------|   
----------------------------|   
----------------------------|x3 
------4--2--4--7--6--2--4---|   
------2--0--2--5--4--0--2---|   



----------------------------|
----------------------------|
----------------------------|
----------------------------|
------4--2--4--7--9--7------|
------2--0--2--5--7--5------|
Suggest correction
comments
print report bad tab
1 comment total.
+1 reply
federicograyes 10 Dec 23, 2008 11:13 AM

------------------
------------------
-------4-2--------
-4-2-4-4-2-2-4----
-4-2-4-----2-4----
------------------

guest
You may want to rate the tab now too:
select rating
Wanna post a correction for this tab? Suggest correction